ISO-10303-21;
HEADER;
/* Generated by software containing ST-Developer
 * from STEP Tools, Inc. (www.steptools.com) 
 */

FILE_DESCRIPTION(
/* description */ (''),
/* implementation_level */ '2;1');

FILE_NAME(
/* name */ 
'I:\\Daten\\POOL\\CI\\Zeichnungen\\3D_Daten_als_STP\\Anschlussteile\\W
inkelstueck\\Winkel_90Grad_R1_8a_x_G1_4i_Messing_109851.stp',
/* time_stamp */ '2015-04-14T14:00:48+02:00',
/* author */ ('002180'),
/* organization */ (''),
/* preprocessor_version */ 'ST-DEVELOPER v15.6',
/* originating_system */ 'Autodesk Inventor 2015',
/* authorisation */ '');

FILE_SCHEMA (('AUTOMOTIVE_DESIGN { 1 0 10303 214 3 1 1 }'));
ENDSEC;

DATA;
#10=MECHANICAL_DESIGN_GEOMETRIC_PRESENTATION_REPRESENTATION('',(#13),#319);
#11=SHAPE_REPRESENTATION_RELATIONSHIP('SRR','None',#328,#12);
#12=ADVANCED_BREP_SHAPE_REPRESENTATION($,(#14),#318);
#13=STYLED_ITEM('',(#337),#14);
#14=MANIFOLD_SOLID_BREP('Volumenk\X\F6rper2',#160);
#15=SPHERICAL_SURFACE('',#187,8.875);
#16=B_SPLINE_CURVE_WITH_KNOTS('',3,(#274,#275,#276,#277,#278,#279,#280,
#281,#282,#283,#284,#285,#286,#287,#288,#289,#290,#291,#292,#293,#294,#295,
#296,#297,#298,#299,#300,#301,#302,#303,#304,#305,#306,#307),
 .UNSPECIFIED.,.T.,.F.,(4,2,2,2,2,2,2,2,2,2,2,2,2,2,2,2,4),(0.,0.105643609713624,
0.211287219427248,0.31669032642699,0.422093433426732,0.527496540426475,
0.632899647426217,0.738543257139841,0.844186866853464,0.949830476567088,
1.05547408628071,1.16087719328045,1.2662803002802,1.37168340727994,1.47708651427968,
1.5827301239933,1.68837373370693),.UNSPECIFIED.);
#17=ELLIPSE('',#175,12.6420014748789,8.875);
#18=CYLINDRICAL_SURFACE('',#174,8.875);
#19=CYLINDRICAL_SURFACE('',#179,5.7225);
#20=CYLINDRICAL_SURFACE('',#181,2.75);
#21=PLANE('',#165);
#22=PLANE('',#172);
#23=PLANE('',#186);
#24=FACE_BOUND('',#50,.T.);
#25=FACE_BOUND('',#52,.T.);
#26=FACE_BOUND('',#54,.T.);
#27=FACE_BOUND('',#56,.T.);
#28=FACE_BOUND('',#58,.T.);
#29=FACE_BOUND('',#60,.T.);
#30=FACE_BOUND('',#62,.T.);
#31=FACE_BOUND('',#64,.T.);
#32=FACE_BOUND('',#65,.T.);
#33=FACE_BOUND('',#67,.T.);
#34=FACE_BOUND('',#70,.T.);
#35=FACE_BOUND('',#72,.T.);
#36=FACE_OUTER_BOUND('',#49,.T.);
#37=FACE_OUTER_BOUND('',#51,.T.);
#38=FACE_OUTER_BOUND('',#53,.T.);
#39=FACE_OUTER_BOUND('',#55,.T.);
#40=FACE_OUTER_BOUND('',#57,.T.);
#41=FACE_OUTER_BOUND('',#59,.T.);
#42=FACE_OUTER_BOUND('',#61,.T.);
#43=FACE_OUTER_BOUND('',#63,.T.);
#44=FACE_OUTER_BOUND('',#66,.T.);
#45=FACE_OUTER_BOUND('',#68,.T.);
#46=FACE_OUTER_BOUND('',#69,.T.);
#47=FACE_OUTER_BOUND('',#71,.T.);
#48=FACE_OUTER_BOUND('',#73,.T.);
#49=EDGE_LOOP('',(#113));
#50=EDGE_LOOP('',(#114));
#51=EDGE_LOOP('',(#115));
#52=EDGE_LOOP('',(#116));
#53=EDGE_LOOP('',(#117));
#54=EDGE_LOOP('',(#118));
#55=EDGE_LOOP('',(#119));
#56=EDGE_LOOP('',(#120));
#57=EDGE_LOOP('',(#121));
#58=EDGE_LOOP('',(#122));
#59=EDGE_LOOP('',(#123,#124));
#60=EDGE_LOOP('',(#125));
#61=EDGE_LOOP('',(#126));
#62=EDGE_LOOP('',(#127));
#63=EDGE_LOOP('',(#128));
#64=EDGE_LOOP('',(#129));
#65=EDGE_LOOP('',(#130));
#66=EDGE_LOOP('',(#131));
#67=EDGE_LOOP('',(#132));
#68=EDGE_LOOP('',(#133));
#69=EDGE_LOOP('',(#134,#135));
#70=EDGE_LOOP('',(#136));
#71=EDGE_LOOP('',(#137));
#72=EDGE_LOOP('',(#138));
#73=EDGE_LOOP('',(#139,#140));
#74=CIRCLE('',#163,4.75774085142663);
#75=CIRCLE('',#164,4.139);
#76=CIRCLE('',#166,2.75);
#77=CIRCLE('',#168,5.04525);
#78=CIRCLE('',#170,8.875);
#79=CIRCLE('',#171,8.675);
#80=CIRCLE('',#173,6.7225);
#81=CIRCLE('',#176,8.875);
#82=CIRCLE('',#178,5.7225);
#83=CIRCLE('',#180,5.7225);
#84=CIRCLE('',#184,8.7487892218305);
#85=CIRCLE('',#185,7.);
#86=VERTEX_POINT('',#244);
#87=VERTEX_POINT('',#246);
#88=VERTEX_POINT('',#249);
#89=VERTEX_POINT('',#252);
#90=VERTEX_POINT('',#255);
#91=VERTEX_POINT('',#257);
#92=VERTEX_POINT('',#260);
#93=VERTEX_POINT('',#263);
#94=VERTEX_POINT('',#264);
#95=VERTEX_POINT('',#268);
#96=VERTEX_POINT('',#271);
#97=VERTEX_POINT('',#273);
#98=VERTEX_POINT('',#312);
#99=EDGE_CURVE('',#86,#86,#74,.T.);
#100=EDGE_CURVE('',#87,#87,#75,.T.);
#101=EDGE_CURVE('',#88,#88,#76,.T.);
#102=EDGE_CURVE('',#89,#89,#77,.T.);
#103=EDGE_CURVE('',#90,#90,#78,.T.);
#104=EDGE_CURVE('',#91,#91,#79,.T.);
#105=EDGE_CURVE('',#92,#92,#80,.T.);
#106=EDGE_CURVE('',#93,#94,#17,.T.);
#107=EDGE_CURVE('',#94,#93,#81,.T.);
#108=EDGE_CURVE('',#95,#95,#82,.T.);
#109=EDGE_CURVE('',#96,#96,#83,.T.);
#110=EDGE_CURVE('',#97,#97,#16,.T.);
#111=EDGE_CURVE('',#94,#93,#84,.T.);
#112=EDGE_CURVE('',#98,#98,#85,.T.);
#113=ORIENTED_EDGE('',*,*,#99,.T.);
#114=ORIENTED_EDGE('',*,*,#100,.T.);
#115=ORIENTED_EDGE('',*,*,#100,.F.);
#116=ORIENTED_EDGE('',*,*,#101,.F.);
#117=ORIENTED_EDGE('',*,*,#102,.T.);
#118=ORIENTED_EDGE('',*,*,#99,.F.);
#119=ORIENTED_EDGE('',*,*,#103,.T.);
#120=ORIENTED_EDGE('',*,*,#104,.T.);
#121=ORIENTED_EDGE('',*,*,#104,.F.);
#122=ORIENTED_EDGE('',*,*,#105,.F.);
#123=ORIENTED_EDGE('',*,*,#106,.T.);
#124=ORIENTED_EDGE('',*,*,#107,.T.);
#125=ORIENTED_EDGE('',*,*,#103,.F.);
#126=ORIENTED_EDGE('',*,*,#108,.T.);
#127=ORIENTED_EDGE('',*,*,#105,.T.);
#128=ORIENTED_EDGE('',*,*,#109,.F.);
#129=ORIENTED_EDGE('',*,*,#110,.T.);
#130=ORIENTED_EDGE('',*,*,#108,.F.);
#131=ORIENTED_EDGE('',*,*,#101,.T.);
#132=ORIENTED_EDGE('',*,*,#110,.F.);
#133=ORIENTED_EDGE('',*,*,#109,.T.);
#134=ORIENTED_EDGE('',*,*,#106,.F.);
#135=ORIENTED_EDGE('',*,*,#111,.F.);
#136=ORIENTED_EDGE('',*,*,#112,.T.);
#137=ORIENTED_EDGE('',*,*,#112,.F.);
#138=ORIENTED_EDGE('',*,*,#102,.F.);
#139=ORIENTED_EDGE('',*,*,#111,.T.);
#140=ORIENTED_EDGE('',*,*,#107,.F.);
#141=CONICAL_SURFACE('',#162,4.44837042571332,45.8949553041232);
#142=CONICAL_SURFACE('',#167,4.8015,1.7899106082461);
#143=CONICAL_SURFACE('',#169,8.775,44.999999999999);
#144=CONICAL_SURFACE('',#177,6.2225,45.);
#145=CONICAL_SURFACE('',#182,2.86125,70.);
#146=CONICAL_SURFACE('',#183,7.87439461091525,9.6742585827647);
#147=ADVANCED_FACE('',(#36,#24),#141,.T.);
#148=ADVANCED_FACE('',(#37,#25),#21,.F.);
#149=ADVANCED_FACE('',(#38,#26),#142,.T.);
#150=ADVANCED_FACE('',(#39,#27),#143,.T.);
#151=ADVANCED_FACE('',(#40,#28),#22,.T.);
#152=ADVANCED_FACE('',(#41,#29),#18,.T.);
#153=ADVANCED_FACE('',(#42,#30),#144,.F.);
#154=ADVANCED_FACE('',(#43,#31,#32),#19,.F.);
#155=ADVANCED_FACE('',(#44,#33),#20,.F.);
#156=ADVANCED_FACE('',(#45),#145,.F.);
#157=ADVANCED_FACE('',(#46,#34),#146,.T.);
#158=ADVANCED_FACE('',(#47,#35),#23,.T.);
#159=ADVANCED_FACE('',(#48),#15,.T.);
#160=CLOSED_SHELL('',(#147,#148,#149,#150,#151,#152,#153,#154,#155,#156,
#157,#158,#159));
#161=AXIS2_PLACEMENT_3D('placement',#242,#188,#189);
#162=AXIS2_PLACEMENT_3D('',#243,#190,#191);
#163=AXIS2_PLACEMENT_3D('',#245,#192,#193);
#164=AXIS2_PLACEMENT_3D('',#247,#194,#195);
#165=AXIS2_PLACEMENT_3D('',#248,#196,#197);
#166=AXIS2_PLACEMENT_3D('',#250,#198,#199);
#167=AXIS2_PLACEMENT_3D('',#251,#200,#201);
#168=AXIS2_PLACEMENT_3D('',#253,#202,#203);
#169=AXIS2_PLACEMENT_3D('',#254,#204,#205);
#170=AXIS2_PLACEMENT_3D('',#256,#206,#207);
#171=AXIS2_PLACEMENT_3D('',#258,#208,#209);
#172=AXIS2_PLACEMENT_3D('',#259,#210,#211);
#173=AXIS2_PLACEMENT_3D('',#261,#212,#213);
#174=AXIS2_PLACEMENT_3D('',#262,#214,#215);
#175=AXIS2_PLACEMENT_3D('',#265,#216,#217);
#176=AXIS2_PLACEMENT_3D('',#266,#218,#219);
#177=AXIS2_PLACEMENT_3D('',#267,#220,#221);
#178=AXIS2_PLACEMENT_3D('',#269,#222,#223);
#179=AXIS2_PLACEMENT_3D('',#270,#224,#225);
#180=AXIS2_PLACEMENT_3D('',#272,#226,#227);
#181=AXIS2_PLACEMENT_3D('',#308,#228,#229);
#182=AXIS2_PLACEMENT_3D('',#309,#230,#231);
#183=AXIS2_PLACEMENT_3D('',#310,#232,#233);
#184=AXIS2_PLACEMENT_3D('',#311,#234,#235);
#185=AXIS2_PLACEMENT_3D('',#313,#236,#237);
#186=AXIS2_PLACEMENT_3D('',#314,#238,#239);
#187=AXIS2_PLACEMENT_3D('',#315,#240,#241);
#188=DIRECTION('axis',(0.,0.,1.));
#189=DIRECTION('refdir',(1.,0.,0.));
#190=DIRECTION('center_axis',(4.85783033898084E-16,0.,-1.));
#191=DIRECTION('ref_axis',(3.27454300522754E-17,-1.,0.));
#192=DIRECTION('center_axis',(0.,0.,1.));
#193=DIRECTION('ref_axis',(6.12323399573677E-17,-1.,0.));
#194=DIRECTION('center_axis',(0.,0.,-1.));
#195=DIRECTION('ref_axis',(0.,-1.,0.));
#196=DIRECTION('center_axis',(0.,0.,-1.));
#197=DIRECTION('ref_axis',(-1.,0.,0.));
#198=DIRECTION('center_axis',(0.,0.,1.));
#199=DIRECTION('ref_axis',(1.,0.,0.));
#200=DIRECTION('center_axis',(0.,0.,-1.));
#201=DIRECTION('ref_axis',(0.,1.,0.));
#202=DIRECTION('center_axis',(0.,0.,1.));
#203=DIRECTION('ref_axis',(1.,0.,0.));
#204=DIRECTION('center_axis',(0.,1.,0.));
#205=DIRECTION('ref_axis',(0.,0.,1.));
#206=DIRECTION('center_axis',(0.,-1.,0.));
#207=DIRECTION('ref_axis',(0.,0.,1.));
#208=DIRECTION('center_axis',(0.,1.,0.));
#209=DIRECTION('ref_axis',(0.,0.,1.));
#210=DIRECTION('center_axis',(0.,-1.,0.));
#211=DIRECTION('ref_axis',(0.,0.,-1.));
#212=DIRECTION('center_axis',(0.,-1.,0.));
#213=DIRECTION('ref_axis',(-1.,0.,0.));
#214=DIRECTION('center_axis',(0.,-1.,0.));
#215=DIRECTION('ref_axis',(0.,0.,-1.));
#216=DIRECTION('center_axis',(0.,-0.702024914143197,-0.712152385323701));
#217=DIRECTION('ref_axis',(1.07918397704806E-16,-0.712152385323701,0.702024914143197));
#218=DIRECTION('center_axis',(0.,-1.,0.));
#219=DIRECTION('ref_axis',(1.,0.,0.));
#220=DIRECTION('center_axis',(0.,-1.,0.));
#221=DIRECTION('ref_axis',(-1.,0.,0.));
#222=DIRECTION('center_axis',(0.,1.,0.));
#223=DIRECTION('ref_axis',(-1.,0.,0.));
#224=DIRECTION('center_axis',(0.,-1.,0.));
#225=DIRECTION('ref_axis',(1.,0.,0.));
#226=DIRECTION('center_axis',(0.,-1.,0.));
#227=DIRECTION('ref_axis',(1.,0.,0.));
#228=DIRECTION('center_axis',(0.,0.,1.));
#229=DIRECTION('ref_axis',(1.,0.,0.));
#230=DIRECTION('center_axis',(0.,-1.,0.));
#231=DIRECTION('ref_axis',(1.,0.,0.));
#232=DIRECTION('center_axis',(0.,0.,-1.));
#233=DIRECTION('ref_axis',(0.,1.,0.));
#234=DIRECTION('center_axis',(0.,0.,-1.));
#235=DIRECTION('ref_axis',(0.,1.,0.));
#236=DIRECTION('center_axis',(0.,0.,-1.));
#237=DIRECTION('ref_axis',(1.,0.,0.));
#238=DIRECTION('center_axis',(0.,0.,1.));
#239=DIRECTION('ref_axis',(1.,0.,0.));
#240=DIRECTION('center_axis',(0.,1.,-6.12323399573677E-17));
#241=DIRECTION('ref_axis',(0.,0.,-1.));
#242=CARTESIAN_POINT('',(0.,0.,0.));
#243=CARTESIAN_POINT('Origin',(1.45663802621806E-16,0.,21.2501463771739));
#244=CARTESIAN_POINT('',(-5.82655210487223E-16,4.75774085142663,20.9502927543478));
#245=CARTESIAN_POINT('Origin',(2.91327605243611E-16,0.,20.9502927543478));
#246=CARTESIAN_POINT('',(5.06881310167089E-16,4.139,21.55));
#247=CARTESIAN_POINT('Origin',(0.,0.,21.55));
#248=CARTESIAN_POINT('Origin',(0.,9.71144706521846,21.55));
#249=CARTESIAN_POINT('',(-2.75,-3.36777869765522E-16,21.55));
#250=CARTESIAN_POINT('Origin',(0.,0.,21.55));
#251=CARTESIAN_POINT('Origin',(0.,0.,19.55));
#252=CARTESIAN_POINT('',(0.,5.04525,11.75));
#253=CARTESIAN_POINT('Origin',(0.,0.,11.75));
#254=CARTESIAN_POINT('Origin',(0.,-14.9,0.));
#255=CARTESIAN_POINT('',(1.08687403424328E-15,-14.8,-8.875));
#256=CARTESIAN_POINT('Origin',(0.,-14.8,0.));
#257=CARTESIAN_POINT('',(-1.06238109826033E-15,-15.,-8.675));
#258=CARTESIAN_POINT('Origin',(0.,-15.,0.));
#259=CARTESIAN_POINT('Origin',(0.,-15.,-1.11022302462516E-15));
#260=CARTESIAN_POINT('',(6.7225,-15.,8.23268810726808E-16));
#261=CARTESIAN_POINT('Origin',(0.,-15.,0.));
#262=CARTESIAN_POINT('Origin',(0.,-7.5,0.));
#263=CARTESIAN_POINT('',(8.7487892218305,0.,1.49141280401587));
#264=CARTESIAN_POINT('',(-8.7487892218305,0.,1.49141280401587));
#265=CARTESIAN_POINT('Origin',(0.,1.51292805210267,0.));
#266=CARTESIAN_POINT('Origin',(0.,-1.63031105136491E-15,0.));
#267=CARTESIAN_POINT('Origin',(0.,-14.5,0.));
#268=CARTESIAN_POINT('',(5.7225,-14.,-7.00804130812073E-16));
#269=CARTESIAN_POINT('Origin',(0.,-14.,0.));
#270=CARTESIAN_POINT('Origin',(0.,-6.,0.));
#271=CARTESIAN_POINT('',(5.7225,3.,0.));
#272=CARTESIAN_POINT('Origin',(0.,3.,0.));
#273=CARTESIAN_POINT('',(-2.75,9.0205620750794E-16,5.01841670748853));
#274=CARTESIAN_POINT('Ctrl Pts',(-2.75,9.0205620750794E-16,5.01841670748853));
#275=CARTESIAN_POINT('Ctrl Pts',(-2.75,-0.352145365712078,5.01841670748853));
#276=CARTESIAN_POINT('Ctrl Pts',(-2.67843082219796,-0.722775368549051,5.05942647954257));
#277=CARTESIAN_POINT('Ctrl Pts',(-2.39623455228097,-1.39801960906686,5.19902351727094));
#278=CARTESIAN_POINT('Ctrl Pts',(-2.18579897969839,-1.70328831682762,5.29481739949509));
#279=CARTESIAN_POINT('Ctrl Pts',(-1.70383754609105,-2.18524975043497,5.46895299188152));
#280=CARTESIAN_POINT('Ctrl Pts',(-1.39837856102493,-2.39609138367214,5.559664413956));
#281=CARTESIAN_POINT('Ctrl Pts',(-0.722324799663943,-2.67861227821425,5.68714145508802));
#282=CARTESIAN_POINT('Ctrl Pts',(-0.351343689999141,-2.75,5.7225));
#283=CARTESIAN_POINT('Ctrl Pts',(0.351343689999141,-2.75,5.7225));
#284=CARTESIAN_POINT('Ctrl Pts',(0.722324799663943,-2.67861227821425,5.68714145508802));
#285=CARTESIAN_POINT('Ctrl Pts',(1.39837856102493,-2.39609138367214,5.559664413956));
#286=CARTESIAN_POINT('Ctrl Pts',(1.70383754609105,-2.18524975043496,5.46895299188152));
#287=CARTESIAN_POINT('Ctrl Pts',(2.18579897969839,-1.70328831682762,5.29481739949509));
#288=CARTESIAN_POINT('Ctrl Pts',(2.39623455228097,-1.39801960906686,5.19902351727094));
#289=CARTESIAN_POINT('Ctrl Pts',(2.67843082219796,-0.722775368549051,5.05942647954257));
#290=CARTESIAN_POINT('Ctrl Pts',(2.75,-0.352145365712078,5.01841670748853));
#291=CARTESIAN_POINT('Ctrl Pts',(2.75,0.35214536571208,5.01841670748853));
#292=CARTESIAN_POINT('Ctrl Pts',(2.67843082219796,0.722775368549052,5.05942647954257));
#293=CARTESIAN_POINT('Ctrl Pts',(2.39623455228097,1.39801960906686,5.19902351727094));
#294=CARTESIAN_POINT('Ctrl Pts',(2.18579897969839,1.70328831682762,5.29481739949509));
#295=CARTESIAN_POINT('Ctrl Pts',(1.70383754609105,2.18524975043497,5.46895299188152));
#296=CARTESIAN_POINT('Ctrl Pts',(1.39837856102493,2.39609138367214,5.559664413956));
#297=CARTESIAN_POINT('Ctrl Pts',(0.722324799663943,2.67861227821425,5.68714145508802));
#298=CARTESIAN_POINT('Ctrl Pts',(0.351343689999141,2.75,5.7225));
#299=CARTESIAN_POINT('Ctrl Pts',(-0.351343689999141,2.75,5.7225));
#300=CARTESIAN_POINT('Ctrl Pts',(-0.722324799663942,2.67861227821425,5.68714145508802));
#301=CARTESIAN_POINT('Ctrl Pts',(-1.39837856102493,2.39609138367214,5.559664413956));
#302=CARTESIAN_POINT('Ctrl Pts',(-1.70383754609105,2.18524975043497,5.46895299188152));
#303=CARTESIAN_POINT('Ctrl Pts',(-2.18579897969839,1.70328831682762,5.29481739949509));
#304=CARTESIAN_POINT('Ctrl Pts',(-2.39623455228097,1.39801960906686,5.19902351727094));
#305=CARTESIAN_POINT('Ctrl Pts',(-2.67843082219796,0.722775368549052,5.05942647954257));
#306=CARTESIAN_POINT('Ctrl Pts',(-2.75,0.35214536571208,5.01841670748853));
#307=CARTESIAN_POINT('Ctrl Pts',(-2.75,1.11022302462516E-15,5.01841670748853));
#308=CARTESIAN_POINT('Origin',(0.,0.,12.625));
#309=CARTESIAN_POINT('Origin',(0.,4.04140983279417,0.));
#310=CARTESIAN_POINT('Origin',(0.,0.,6.62070640200794));
#311=CARTESIAN_POINT('Origin',(0.,0.,1.49141280401587));
#312=CARTESIAN_POINT('',(0.,7.,11.75));
#313=CARTESIAN_POINT('Origin',(0.,0.,11.75));
#314=CARTESIAN_POINT('Origin',(0.,7.,11.75));
#315=CARTESIAN_POINT('Origin',(0.,0.,0.));
#316=UNCERTAINTY_MEASURE_WITH_UNIT(LENGTH_MEASURE(0.01),#320,
'DISTANCE_ACCURACY_VALUE',
'Maximum model space distance between geometric entities at asserted c
onnectivities');
#317=UNCERTAINTY_MEASURE_WITH_UNIT(LENGTH_MEASURE(1.E-6),#320,
'DISTANCE_ACCURACY_VALUE',
'Maximum model space distance between geometric entities at asserted c
onnectivities');
#318=(
GEOMETRIC_REPRESENTATION_CONTEXT(3)
GLOBAL_UNCERTAINTY_ASSIGNED_CONTEXT((#316))
GLOBAL_UNIT_ASSIGNED_CONTEXT((#320,#323,#321))
REPRESENTATION_CONTEXT('','3D')
);
#319=(
GEOMETRIC_REPRESENTATION_CONTEXT(3)
GLOBAL_UNCERTAINTY_ASSIGNED_CONTEXT((#317))
GLOBAL_UNIT_ASSIGNED_CONTEXT((#320,#323,#321))
REPRESENTATION_CONTEXT('','3D')
);
#320=(
LENGTH_UNIT()
NAMED_UNIT(*)
SI_UNIT(.MILLI.,.METRE.)
);
#321=(
NAMED_UNIT(*)
SI_UNIT($,.STERADIAN.)
SOLID_ANGLE_UNIT()
);
#322=DIMENSIONAL_EXPONENTS(0.,0.,0.,0.,0.,0.,0.);
#323=(
CONVERSION_BASED_UNIT('degree',#325)
NAMED_UNIT(#322)
PLANE_ANGLE_UNIT()
);
#324=(
NAMED_UNIT(*)
PLANE_ANGLE_UNIT()
SI_UNIT($,.RADIAN.)
);
#325=PLANE_ANGLE_MEASURE_WITH_UNIT(PLANE_ANGLE_MEASURE(0.01745329252),#324);
#326=SHAPE_DEFINITION_REPRESENTATION(#327,#328);
#327=PRODUCT_DEFINITION_SHAPE('',$,#330);
#328=SHAPE_REPRESENTATION('',(#161),#318);
#329=PRODUCT_DEFINITION_CONTEXT('part definition',#334,'design');
#330=PRODUCT_DEFINITION('anwin17a','anwin17a',#331,#329);
#331=PRODUCT_DEFINITION_FORMATION('',$,#336);
#332=PRODUCT_RELATED_PRODUCT_CATEGORY('anwin17a','anwin17a',(#336));
#333=APPLICATION_PROTOCOL_DEFINITION('international standard',
'automotive_design',2009,#334);
#334=APPLICATION_CONTEXT(
'Core Data for Automotive Mechanical Design Process');
#335=PRODUCT_CONTEXT('part definition',#334,'mechanical');
#336=PRODUCT('anwin17a','anwin17a',$,(#335));
#337=PRESENTATION_STYLE_ASSIGNMENT((#338));
#338=SURFACE_STYLE_USAGE(.BOTH.,#339);
#339=SURFACE_SIDE_STYLE($,(#340));
#340=SURFACE_STYLE_FILL_AREA(#341);
#341=FILL_AREA_STYLE($,(#342));
#342=FILL_AREA_STYLE_COLOUR($,#343);
#343=COLOUR_RGB('',0.796078431372549,0.603921568627451,0.231372549019608);
ENDSEC;
END-ISO-10303-21;
