ISO-10303-21;
HEADER;
/* Generated by software containing ST-Developer
 * from STEP Tools, Inc. (www.steptools.com) 
 */

FILE_DESCRIPTION(
/* description */ (''),
/* implementation_level */ '2;1');

FILE_NAME(
/* name */ 
'I:\\Daten\\POOL\\CI\\Zeichnungen\\3D_Daten_als_STP\\Anschlussteile\\W
inkelstueck\\Winkel_90Grad_R1_4a_x_G1_4i_Messing_109849.stp',
/* time_stamp */ '2015-04-14T13:56:55+02:00',
/* author */ ('002180'),
/* organization */ (''),
/* preprocessor_version */ 'ST-DEVELOPER v15.6',
/* originating_system */ 'Autodesk Inventor 2015',
/* authorisation */ '');

FILE_SCHEMA (('AUTOMOTIVE_DESIGN { 1 0 10303 214 3 1 1 }'));
ENDSEC;

DATA;
#10=MECHANICAL_DESIGN_GEOMETRIC_PRESENTATION_REPRESENTATION('',(#13),#336);
#11=SHAPE_REPRESENTATION_RELATIONSHIP('SRR','None',#345,#12);
#12=ADVANCED_BREP_SHAPE_REPRESENTATION($,(#14),#335);
#13=STYLED_ITEM('',(#354),#14);
#14=MANIFOLD_SOLID_BREP('Volumenk\X\F6rper2',#162);
#15=SPHERICAL_SURFACE('',#189,8.875);
#16=B_SPLINE_CURVE_WITH_KNOTS('',3,(#264,#265,#266,#267,#268,#269,#270,
#271,#272,#273,#274,#275,#276,#277,#278,#279,#280,#281,#282,#283,#284,#285,
#286,#287,#288,#289,#290,#291,#292,#293,#294),.UNSPECIFIED.,.F.,.F.,(4,
2,2,3,2,2,2,2,2,2,2,2,2,2,4),(-0.350466752424497,-0.295223704739788,-0.147611852369894,
0.,0.147611852369894,0.295223704739788,0.441350591884446,0.587477479029103,
0.733604366173761,0.879731253318418,1.02734310568831,1.17495495805821,1.3225668104281,
1.47017866279799,1.52542171090448),.UNSPECIFIED.);
#17=B_SPLINE_CURVE_WITH_KNOTS('',3,(#308,#309,#310,#311,#312,#313,#314,
#315,#316,#317,#318,#319,#320,#321,#322,#323,#324,#325),.UNSPECIFIED.,.F.,
 .F.,(4,2,2,2,2,2,2,2,4),(1.07447119036839,1.12351359729187,1.23810548557528,
1.29963077640956,1.36115606724384,1.42268135807812,1.48420664891241,1.59879853719581,
1.64784094411929),.UNSPECIFIED.);
#18=ELLIPSE('',#170,12.6420014748789,8.875);
#19=CYLINDRICAL_SURFACE('',#169,8.875);
#20=CYLINDRICAL_SURFACE('',#174,5.7225);
#21=CYLINDRICAL_SURFACE('',#183,3.75);
#22=PLANE('',#167);
#23=PLANE('',#179);
#24=PLANE('',#188);
#25=FACE_BOUND('',#50,.T.);
#26=FACE_BOUND('',#52,.T.);
#27=FACE_BOUND('',#54,.T.);
#28=FACE_BOUND('',#56,.T.);
#29=FACE_BOUND('',#58,.T.);
#30=FACE_BOUND('',#60,.T.);
#31=FACE_BOUND('',#62,.T.);
#32=FACE_BOUND('',#64,.T.);
#33=FACE_BOUND('',#66,.T.);
#34=FACE_BOUND('',#69,.T.);
#35=FACE_BOUND('',#71,.T.);
#36=FACE_OUTER_BOUND('',#49,.T.);
#37=FACE_OUTER_BOUND('',#51,.T.);
#38=FACE_OUTER_BOUND('',#53,.T.);
#39=FACE_OUTER_BOUND('',#55,.T.);
#40=FACE_OUTER_BOUND('',#57,.T.);
#41=FACE_OUTER_BOUND('',#59,.T.);
#42=FACE_OUTER_BOUND('',#61,.T.);
#43=FACE_OUTER_BOUND('',#63,.T.);
#44=FACE_OUTER_BOUND('',#65,.T.);
#45=FACE_OUTER_BOUND('',#67,.T.);
#46=FACE_OUTER_BOUND('',#68,.T.);
#47=FACE_OUTER_BOUND('',#70,.T.);
#48=FACE_OUTER_BOUND('',#72,.T.);
#49=EDGE_LOOP('',(#113));
#50=EDGE_LOOP('',(#114));
#51=EDGE_LOOP('',(#115));
#52=EDGE_LOOP('',(#116));
#53=EDGE_LOOP('',(#117,#118));
#54=EDGE_LOOP('',(#119));
#55=EDGE_LOOP('',(#120));
#56=EDGE_LOOP('',(#121));
#57=EDGE_LOOP('',(#122,#123));
#58=EDGE_LOOP('',(#124));
#59=EDGE_LOOP('',(#125));
#60=EDGE_LOOP('',(#126));
#61=EDGE_LOOP('',(#127));
#62=EDGE_LOOP('',(#128));
#63=EDGE_LOOP('',(#129));
#64=EDGE_LOOP('',(#130));
#65=EDGE_LOOP('',(#131,#132));
#66=EDGE_LOOP('',(#133));
#67=EDGE_LOOP('',(#134,#135));
#68=EDGE_LOOP('',(#136,#137));
#69=EDGE_LOOP('',(#138));
#70=EDGE_LOOP('',(#139));
#71=EDGE_LOOP('',(#140));
#72=EDGE_LOOP('',(#141,#142));
#73=CIRCLE('',#165,8.875);
#74=CIRCLE('',#166,8.675);
#75=CIRCLE('',#168,6.7225);
#76=CIRCLE('',#171,8.875);
#77=CIRCLE('',#173,5.7225);
#78=CIRCLE('',#175,5.7225);
#79=CIRCLE('',#177,5.391);
#80=CIRCLE('',#178,6.42223475237772);
#81=CIRCLE('',#180,3.75);
#82=CIRCLE('',#182,6.812875);
#83=CIRCLE('',#186,8.7487892218305);
#84=CIRCLE('',#187,7.);
#85=VERTEX_POINT('',#246);
#86=VERTEX_POINT('',#248);
#87=VERTEX_POINT('',#251);
#88=VERTEX_POINT('',#254);
#89=VERTEX_POINT('',#255);
#90=VERTEX_POINT('',#259);
#91=VERTEX_POINT('',#262);
#92=VERTEX_POINT('',#263);
#93=VERTEX_POINT('',#297);
#94=VERTEX_POINT('',#299);
#95=VERTEX_POINT('',#302);
#96=VERTEX_POINT('',#305);
#97=VERTEX_POINT('',#329);
#98=EDGE_CURVE('',#85,#85,#73,.T.);
#99=EDGE_CURVE('',#86,#86,#74,.T.);
#100=EDGE_CURVE('',#87,#87,#75,.T.);
#101=EDGE_CURVE('',#88,#89,#18,.T.);
#102=EDGE_CURVE('',#89,#88,#76,.T.);
#103=EDGE_CURVE('',#90,#90,#77,.T.);
#104=EDGE_CURVE('',#91,#92,#16,.T.);
#105=EDGE_CURVE('',#91,#92,#78,.T.);
#106=EDGE_CURVE('',#93,#93,#79,.T.);
#107=EDGE_CURVE('',#94,#94,#80,.T.);
#108=EDGE_CURVE('',#95,#95,#81,.T.);
#109=EDGE_CURVE('',#96,#96,#82,.T.);
#110=EDGE_CURVE('',#92,#91,#17,.T.);
#111=EDGE_CURVE('',#89,#88,#83,.T.);
#112=EDGE_CURVE('',#97,#97,#84,.T.);
#113=ORIENTED_EDGE('',*,*,#98,.T.);
#114=ORIENTED_EDGE('',*,*,#99,.T.);
#115=ORIENTED_EDGE('',*,*,#99,.F.);
#116=ORIENTED_EDGE('',*,*,#100,.F.);
#117=ORIENTED_EDGE('',*,*,#101,.T.);
#118=ORIENTED_EDGE('',*,*,#102,.T.);
#119=ORIENTED_EDGE('',*,*,#98,.F.);
#120=ORIENTED_EDGE('',*,*,#103,.T.);
#121=ORIENTED_EDGE('',*,*,#100,.T.);
#122=ORIENTED_EDGE('',*,*,#104,.T.);
#123=ORIENTED_EDGE('',*,*,#105,.F.);
#124=ORIENTED_EDGE('',*,*,#103,.F.);
#125=ORIENTED_EDGE('',*,*,#106,.T.);
#126=ORIENTED_EDGE('',*,*,#107,.T.);
#127=ORIENTED_EDGE('',*,*,#106,.F.);
#128=ORIENTED_EDGE('',*,*,#108,.T.);
#129=ORIENTED_EDGE('',*,*,#109,.F.);
#130=ORIENTED_EDGE('',*,*,#107,.F.);
#131=ORIENTED_EDGE('',*,*,#110,.F.);
#132=ORIENTED_EDGE('',*,*,#104,.F.);
#133=ORIENTED_EDGE('',*,*,#108,.F.);
#134=ORIENTED_EDGE('',*,*,#110,.T.);
#135=ORIENTED_EDGE('',*,*,#105,.T.);
#136=ORIENTED_EDGE('',*,*,#101,.F.);
#137=ORIENTED_EDGE('',*,*,#111,.F.);
#138=ORIENTED_EDGE('',*,*,#112,.T.);
#139=ORIENTED_EDGE('',*,*,#112,.F.);
#140=ORIENTED_EDGE('',*,*,#109,.T.);
#141=ORIENTED_EDGE('',*,*,#111,.T.);
#142=ORIENTED_EDGE('',*,*,#102,.F.);
#143=CONICAL_SURFACE('',#164,8.775,44.999999999999);
#144=CONICAL_SURFACE('',#172,6.2225,45.);
#145=CONICAL_SURFACE('',#176,5.90661737618886,45.8949553041231);
#146=CONICAL_SURFACE('',#181,6.6956875,1.78991060824608);
#147=CONICAL_SURFACE('',#184,2.86125,70.);
#148=CONICAL_SURFACE('',#185,7.87439461091525,9.6742585827647);
#149=ADVANCED_FACE('',(#36,#25),#143,.T.);
#150=ADVANCED_FACE('',(#37,#26),#22,.T.);
#151=ADVANCED_FACE('',(#38,#27),#19,.T.);
#152=ADVANCED_FACE('',(#39,#28),#144,.F.);
#153=ADVANCED_FACE('',(#40,#29),#20,.F.);
#154=ADVANCED_FACE('',(#41,#30),#145,.T.);
#155=ADVANCED_FACE('',(#42,#31),#23,.T.);
#156=ADVANCED_FACE('',(#43,#32),#146,.T.);
#157=ADVANCED_FACE('',(#44,#33),#21,.F.);
#158=ADVANCED_FACE('',(#45),#147,.F.);
#159=ADVANCED_FACE('',(#46,#34),#148,.T.);
#160=ADVANCED_FACE('',(#47,#35),#24,.T.);
#161=ADVANCED_FACE('',(#48),#15,.T.);
#162=CLOSED_SHELL('',(#149,#150,#151,#152,#153,#154,#155,#156,#157,#158,
#159,#160,#161));
#163=AXIS2_PLACEMENT_3D('placement',#244,#190,#191);
#164=AXIS2_PLACEMENT_3D('',#245,#192,#193);
#165=AXIS2_PLACEMENT_3D('',#247,#194,#195);
#166=AXIS2_PLACEMENT_3D('',#249,#196,#197);
#167=AXIS2_PLACEMENT_3D('',#250,#198,#199);
#168=AXIS2_PLACEMENT_3D('',#252,#200,#201);
#169=AXIS2_PLACEMENT_3D('',#253,#202,#203);
#170=AXIS2_PLACEMENT_3D('',#256,#204,#205);
#171=AXIS2_PLACEMENT_3D('',#257,#206,#207);
#172=AXIS2_PLACEMENT_3D('',#258,#208,#209);
#173=AXIS2_PLACEMENT_3D('',#260,#210,#211);
#174=AXIS2_PLACEMENT_3D('',#261,#212,#213);
#175=AXIS2_PLACEMENT_3D('',#295,#214,#215);
#176=AXIS2_PLACEMENT_3D('',#296,#216,#217);
#177=AXIS2_PLACEMENT_3D('',#298,#218,#219);
#178=AXIS2_PLACEMENT_3D('',#300,#220,#221);
#179=AXIS2_PLACEMENT_3D('',#301,#222,#223);
#180=AXIS2_PLACEMENT_3D('',#303,#224,#225);
#181=AXIS2_PLACEMENT_3D('',#304,#226,#227);
#182=AXIS2_PLACEMENT_3D('',#306,#228,#229);
#183=AXIS2_PLACEMENT_3D('',#307,#230,#231);
#184=AXIS2_PLACEMENT_3D('',#326,#232,#233);
#185=AXIS2_PLACEMENT_3D('',#327,#234,#235);
#186=AXIS2_PLACEMENT_3D('',#328,#236,#237);
#187=AXIS2_PLACEMENT_3D('',#330,#238,#239);
#188=AXIS2_PLACEMENT_3D('',#331,#240,#241);
#189=AXIS2_PLACEMENT_3D('',#332,#242,#243);
#190=DIRECTION('axis',(0.,0.,1.));
#191=DIRECTION('refdir',(1.,0.,0.));
#192=DIRECTION('center_axis',(0.,1.,0.));
#193=DIRECTION('ref_axis',(0.,0.,1.));
#194=DIRECTION('center_axis',(0.,-1.,0.));
#195=DIRECTION('ref_axis',(0.,0.,1.));
#196=DIRECTION('center_axis',(0.,1.,0.));
#197=DIRECTION('ref_axis',(0.,0.,1.));
#198=DIRECTION('center_axis',(0.,-1.,0.));
#199=DIRECTION('ref_axis',(0.,0.,-1.));
#200=DIRECTION('center_axis',(0.,-1.,0.));
#201=DIRECTION('ref_axis',(-1.,0.,0.));
#202=DIRECTION('center_axis',(0.,-1.,0.));
#203=DIRECTION('ref_axis',(0.,0.,-1.));
#204=DIRECTION('center_axis',(0.,-0.702024914143197,-0.712152385323701));
#205=DIRECTION('ref_axis',(1.07918397704806E-16,-0.712152385323701,0.702024914143197));
#206=DIRECTION('center_axis',(0.,-1.,0.));
#207=DIRECTION('ref_axis',(1.,0.,0.));
#208=DIRECTION('center_axis',(0.,-1.,0.));
#209=DIRECTION('ref_axis',(-1.,0.,0.));
#210=DIRECTION('center_axis',(0.,1.,0.));
#211=DIRECTION('ref_axis',(-1.,0.,0.));
#212=DIRECTION('center_axis',(0.,-1.,0.));
#213=DIRECTION('ref_axis',(1.,0.,0.));
#214=DIRECTION('center_axis',(0.,-1.,0.));
#215=DIRECTION('ref_axis',(1.,0.,0.));
#216=DIRECTION('center_axis',(-3.93440430638032E-16,0.,-1.));
#217=DIRECTION('ref_axis',(-3.32888044542129E-17,-1.,0.));
#218=DIRECTION('center_axis',(0.,0.,-1.));
#219=DIRECTION('ref_axis',(0.,-1.,0.));
#220=DIRECTION('center_axis',(0.,0.,1.));
#221=DIRECTION('ref_axis',(-6.12323399573677E-17,-1.,0.));
#222=DIRECTION('center_axis',(0.,0.,1.));
#223=DIRECTION('ref_axis',(1.,0.,0.));
#224=DIRECTION('center_axis',(0.,0.,-1.));
#225=DIRECTION('ref_axis',(1.,0.,0.));
#226=DIRECTION('center_axis',(0.,0.,-1.));
#227=DIRECTION('ref_axis',(0.,1.,0.));
#228=DIRECTION('center_axis',(0.,0.,-1.));
#229=DIRECTION('ref_axis',(1.,0.,0.));
#230=DIRECTION('center_axis',(0.,0.,1.));
#231=DIRECTION('ref_axis',(1.,0.,0.));
#232=DIRECTION('center_axis',(0.,-1.,0.));
#233=DIRECTION('ref_axis',(1.,0.,0.));
#234=DIRECTION('center_axis',(0.,0.,-1.));
#235=DIRECTION('ref_axis',(0.,1.,0.));
#236=DIRECTION('center_axis',(0.,0.,-1.));
#237=DIRECTION('ref_axis',(0.,1.,0.));
#238=DIRECTION('center_axis',(0.,0.,-1.));
#239=DIRECTION('ref_axis',(1.,0.,0.));
#240=DIRECTION('center_axis',(0.,0.,1.));
#241=DIRECTION('ref_axis',(1.,0.,0.));
#242=DIRECTION('center_axis',(0.,1.,-6.12323399573677E-17));
#243=DIRECTION('ref_axis',(0.,0.,-1.));
#244=CARTESIAN_POINT('',(0.,0.,0.));
#245=CARTESIAN_POINT('Origin',(0.,-14.9,0.));
#246=CARTESIAN_POINT('',(1.08687403424328E-15,-14.8,-8.875));
#247=CARTESIAN_POINT('Origin',(0.,-14.8,0.));
#248=CARTESIAN_POINT('',(-1.06238109826033E-15,-15.,-8.675));
#249=CARTESIAN_POINT('Origin',(0.,-15.,0.));
#250=CARTESIAN_POINT('Origin',(0.,-15.,-1.11022302462516E-15));
#251=CARTESIAN_POINT('',(6.7225,-15.,8.23268810726808E-16));
#252=CARTESIAN_POINT('Origin',(0.,-15.,0.));
#253=CARTESIAN_POINT('Origin',(0.,-7.5,0.));
#254=CARTESIAN_POINT('',(8.7487892218305,0.,1.49141280401587));
#255=CARTESIAN_POINT('',(-8.7487892218305,0.,1.49141280401587));
#256=CARTESIAN_POINT('Origin',(0.,1.51292805210267,0.));
#257=CARTESIAN_POINT('Origin',(0.,-1.63031105136491E-15,0.));
#258=CARTESIAN_POINT('Origin',(0.,-14.5,0.));
#259=CARTESIAN_POINT('',(5.7225,-14.,-7.00804130812073E-16));
#260=CARTESIAN_POINT('Origin',(0.,-14.,0.));
#261=CARTESIAN_POINT('Origin',(0.,-6.,0.));
#262=CARTESIAN_POINT('',(-2.25,3.,5.26160681256211));
#263=CARTESIAN_POINT('',(2.25,3.,5.26160681256211));
#264=CARTESIAN_POINT('Ctrl Pts',(-2.25,3.,5.26160681256211));
#265=CARTESIAN_POINT('Ctrl Pts',(-2.39513577647705,2.89114816764221,5.19954297755762));
#266=CARTESIAN_POINT('Ctrl Pts',(-2.52952211615553,2.77377874274358,5.13493112073784));
#267=CARTESIAN_POINT('Ctrl Pts',(-2.97798265237526,2.32531820652384,4.90043219826236));
#268=CARTESIAN_POINT('Ctrl Pts',(-3.26254981194398,1.91443996348943,4.707587776418));
#269=CARTESIAN_POINT('Ctrl Pts',(-3.64850153698341,0.998869023310351,4.41520753273491));
#270=CARTESIAN_POINT('Ctrl Pts',(-3.75,0.492039507899647,4.32255783651301));
#271=CARTESIAN_POINT('Ctrl Pts',(-3.75,1.11022302462516E-15,4.32255783651301));
#272=CARTESIAN_POINT('Ctrl Pts',(-3.75,-0.492039507899646,4.32255783651301));
#273=CARTESIAN_POINT('Ctrl Pts',(-3.64850153698341,-0.998869023310352,4.41520753273491));
#274=CARTESIAN_POINT('Ctrl Pts',(-3.26254981194398,-1.91443996348943,4.707587776418));
#275=CARTESIAN_POINT('Ctrl Pts',(-2.97798265237526,-2.32531820652384,4.90043219826236));
#276=CARTESIAN_POINT('Ctrl Pts',(-2.32860108655779,-2.97469977234132,5.23999223791103));
#277=CARTESIAN_POINT('Ctrl Pts',(-1.91697106194601,-3.26145883974192,5.41282339560493));
#278=CARTESIAN_POINT('Ctrl Pts',(-0.996634878943805,-3.64946732259064,5.65509987035657));
#279=CARTESIAN_POINT('Ctrl Pts',(-0.487089623815524,-3.75,5.7225));
#280=CARTESIAN_POINT('Ctrl Pts',(0.487089623815526,-3.75,5.7225));
#281=CARTESIAN_POINT('Ctrl Pts',(0.996634878943806,-3.64946732259064,5.65509987035657));
#282=CARTESIAN_POINT('Ctrl Pts',(1.91697106194601,-3.26145883974191,5.41282339560493));
#283=CARTESIAN_POINT('Ctrl Pts',(2.32860108655779,-2.97469977234132,5.23999223791103));
#284=CARTESIAN_POINT('Ctrl Pts',(2.97798265237526,-2.32531820652384,4.90043219826236));
#285=CARTESIAN_POINT('Ctrl Pts',(3.26254981194398,-1.91443996348943,4.707587776418));
#286=CARTESIAN_POINT('Ctrl Pts',(3.64850153698341,-0.99886902331035,4.41520753273491));
#287=CARTESIAN_POINT('Ctrl Pts',(3.75,-0.492039507899645,4.32255783651301));
#288=CARTESIAN_POINT('Ctrl Pts',(3.75,0.492039507899647,4.32255783651301));
#289=CARTESIAN_POINT('Ctrl Pts',(3.64850153698341,0.998869023310352,4.41520753273491));
#290=CARTESIAN_POINT('Ctrl Pts',(3.26254981194398,1.91443996348943,4.707587776418));
#291=CARTESIAN_POINT('Ctrl Pts',(2.97798265237526,2.32531820652384,4.90043219826236));
#292=CARTESIAN_POINT('Ctrl Pts',(2.52952211522308,2.77377874367602,5.13493112122541));
#293=CARTESIAN_POINT('Ctrl Pts',(2.39513577605865,2.89114816795602,5.19954297773654));
#294=CARTESIAN_POINT('Ctrl Pts',(2.25,3.,5.26160681256211));
#295=CARTESIAN_POINT('Origin',(0.,3.,0.));
#296=CARTESIAN_POINT('Origin',(-1.96624230821807E-16,0.,24.7502439619565));
#297=CARTESIAN_POINT('',(6.60207089420338E-16,5.391,25.25));
#298=CARTESIAN_POINT('Origin',(0.,0.,25.25));
#299=CARTESIAN_POINT('',(-7.86496923287227E-16,6.42223475237772,24.2504879239129));
#300=CARTESIAN_POINT('Origin',(-3.93248461643614E-16,0.,24.2504879239129));
#301=CARTESIAN_POINT('Origin',(0.,6.391,25.25));
#302=CARTESIAN_POINT('',(3.75,0.,25.25));
#303=CARTESIAN_POINT('Origin',(0.,0.,25.25));
#304=CARTESIAN_POINT('Origin',(0.,0.,15.5));
#305=CARTESIAN_POINT('',(0.,6.812875,11.75));
#306=CARTESIAN_POINT('Origin',(0.,0.,11.75));
#307=CARTESIAN_POINT('Origin',(0.,0.,12.625));
#308=CARTESIAN_POINT('Ctrl Pts',(2.25,3.,5.26160681256211));
#309=CARTESIAN_POINT('Ctrl Pts',(2.17048738648835,3.05963446013374,5.11741211308115));
#310=CARTESIAN_POINT('Ctrl Pts',(2.0837888494075,3.11972922034064,4.97487847543508));
#311=CARTESIAN_POINT('Ctrl Pts',(1.76900995792857,3.31673486175478,4.51907188708122));
#312=CARTESIAN_POINT('Ctrl Pts',(1.50543921837554,3.44965458626769,4.23349488042898));
#313=CARTESIAN_POINT('Ctrl Pts',(1.03594256025412,3.60822570329372,3.91875003178017));
#314=CARTESIAN_POINT('Ctrl Pts',(0.840890577240698,3.66057577433732,3.82096964488802));
#315=CARTESIAN_POINT('Ctrl Pts',(0.425459316548667,3.73174172063675,3.69270178083209));
#316=CARTESIAN_POINT('Ctrl Pts',(0.205084302780939,3.75,3.66189193540903));
#317=CARTESIAN_POINT('Ctrl Pts',(-0.205084302780941,3.75,3.66189193540903));
#318=CARTESIAN_POINT('Ctrl Pts',(-0.425459316548669,3.73174172063675,3.69270178083209));
#319=CARTESIAN_POINT('Ctrl Pts',(-0.840890577240701,3.66057577433732,3.82096964488802));
#320=CARTESIAN_POINT('Ctrl Pts',(-1.03594256025413,3.60822570329372,3.91875003178017));
#321=CARTESIAN_POINT('Ctrl Pts',(-1.50543921837555,3.44965458626768,4.23349488042898));
#322=CARTESIAN_POINT('Ctrl Pts',(-1.76900995792857,3.31673486175478,4.51907188708122));
#323=CARTESIAN_POINT('Ctrl Pts',(-2.0837888494075,3.11972922034063,4.97487847543508));
#324=CARTESIAN_POINT('Ctrl Pts',(-2.17048738648835,3.05963446013374,5.11741211308115));
#325=CARTESIAN_POINT('Ctrl Pts',(-2.25,3.,5.26160681256211));
#326=CARTESIAN_POINT('Origin',(0.,4.04140983279417,0.));
#327=CARTESIAN_POINT('Origin',(0.,0.,6.62070640200794));
#328=CARTESIAN_POINT('Origin',(0.,0.,1.49141280401587));
#329=CARTESIAN_POINT('',(0.,7.,11.75));
#330=CARTESIAN_POINT('Origin',(0.,0.,11.75));
#331=CARTESIAN_POINT('Origin',(0.,7.,11.75));
#332=CARTESIAN_POINT('Origin',(0.,0.,0.));
#333=UNCERTAINTY_MEASURE_WITH_UNIT(LENGTH_MEASURE(0.01),#337,
'DISTANCE_ACCURACY_VALUE',
'Maximum model space distance between geometric entities at asserted c
onnectivities');
#334=UNCERTAINTY_MEASURE_WITH_UNIT(LENGTH_MEASURE(1.E-6),#337,
'DISTANCE_ACCURACY_VALUE',
'Maximum model space distance between geometric entities at asserted c
onnectivities');
#335=(
GEOMETRIC_REPRESENTATION_CONTEXT(3)
GLOBAL_UNCERTAINTY_ASSIGNED_CONTEXT((#333))
GLOBAL_UNIT_ASSIGNED_CONTEXT((#337,#340,#338))
REPRESENTATION_CONTEXT('','3D')
);
#336=(
GEOMETRIC_REPRESENTATION_CONTEXT(3)
GLOBAL_UNCERTAINTY_ASSIGNED_CONTEXT((#334))
GLOBAL_UNIT_ASSIGNED_CONTEXT((#337,#340,#338))
REPRESENTATION_CONTEXT('','3D')
);
#337=(
LENGTH_UNIT()
NAMED_UNIT(*)
SI_UNIT(.MILLI.,.METRE.)
);
#338=(
NAMED_UNIT(*)
SI_UNIT($,.STERADIAN.)
SOLID_ANGLE_UNIT()
);
#339=DIMENSIONAL_EXPONENTS(0.,0.,0.,0.,0.,0.,0.);
#340=(
CONVERSION_BASED_UNIT('degree',#342)
NAMED_UNIT(#339)
PLANE_ANGLE_UNIT()
);
#341=(
NAMED_UNIT(*)
PLANE_ANGLE_UNIT()
SI_UNIT($,.RADIAN.)
);
#342=PLANE_ANGLE_MEASURE_WITH_UNIT(PLANE_ANGLE_MEASURE(0.01745329252),#341);
#343=SHAPE_DEFINITION_REPRESENTATION(#344,#345);
#344=PRODUCT_DEFINITION_SHAPE('',$,#347);
#345=SHAPE_REPRESENTATION('',(#163),#335);
#346=PRODUCT_DEFINITION_CONTEXT('part definition',#351,'design');
#347=PRODUCT_DEFINITION('anwin16a','anwin16a',#348,#346);
#348=PRODUCT_DEFINITION_FORMATION('',$,#353);
#349=PRODUCT_RELATED_PRODUCT_CATEGORY('anwin16a','anwin16a',(#353));
#350=APPLICATION_PROTOCOL_DEFINITION('international standard',
'automotive_design',2009,#351);
#351=APPLICATION_CONTEXT(
'Core Data for Automotive Mechanical Design Process');
#352=PRODUCT_CONTEXT('part definition',#351,'mechanical');
#353=PRODUCT('anwin16a','anwin16a',$,(#352));
#354=PRESENTATION_STYLE_ASSIGNMENT((#355));
#355=SURFACE_STYLE_USAGE(.BOTH.,#356);
#356=SURFACE_SIDE_STYLE($,(#357));
#357=SURFACE_STYLE_FILL_AREA(#358);
#358=FILL_AREA_STYLE($,(#359));
#359=FILL_AREA_STYLE_COLOUR($,#360);
#360=COLOUR_RGB('',0.796078431372549,0.603921568627451,0.231372549019608);
ENDSEC;
END-ISO-10303-21;
