ISO-10303-21;
HEADER;
/****************************************************************
 * Generated by software with PDE/Lib inside                    *
 * PDElib Version 4.0, created Wed Jun 15 17:58:53 EDT 2005     *
 * International Technegroup Inc. (www.iti-oh.com)              *
 ****************************************************************/
FILE_DESCRIPTION((''),'2;1');
FILE_NAME('I:\\DATEN\\POOL\\CI\\Technische Zeichnungen\\3D Daten als STP\\Anschlussteile\\Winkelst\S\|ck\\Winkelstueck G1_4 M6 45\S\0 Sonderversion A260011304.stp','2006-04-07T08:23:18',('ScheitB'),(''),'Autodesk Inventor 10','Autodesk Inventor 10','');
FILE_SCHEMA(('AUTOMOTIVE_DESIGN { 1 0 10303 214 1 1 1 1 }'));
ENDSEC;
DATA;
#5=APPLICATION_CONTEXT('automotive design');
#6=APPLICATION_PROTOCOL_DEFINITION('Draft International Standard','automotive_design',1998,#5);
#7=PRODUCT_CONTEXT('None',#5,'mechanical');
#8=PRODUCT('anwin03g_m6','anwin03g_m6','None',(#7));
#9=PRODUCT_RELATED_PRODUCT_CATEGORY('part','description',(#8));
#10=PRODUCT_DEFINITION_FORMATION('None','None',#8);
#11=PRODUCT_DEFINITION_CONTEXT('part definition',#5,'design');
#12=PRODUCT_DEFINITION('None','None',#10,#11);
#18=(NAMED_UNIT(*)PLANE_ANGLE_UNIT()SI_UNIT($,.RADIAN.));
#19=DIMENSIONAL_EXPONENTS(0.0,0.0,0.0,0.0,0.0,0.0,0.0);
#20=PLANE_ANGLE_MEASURE_WITH_UNIT(PLANE_ANGLE_MEASURE(0.017453292500000),#18);
#24=(CONVERSION_BASED_UNIT('DEGREE',#20)NAMED_UNIT(#19)PLANE_ANGLE_UNIT());
#28=(NAMED_UNIT(*)SI_UNIT($,.STERADIAN.)SOLID_ANGLE_UNIT());
#32=(LENGTH_UNIT()NAMED_UNIT(*)SI_UNIT(.MILLI.,.METRE.));
#34=UNCERTAINTY_MEASURE_WITH_UNIT(LENGTH_MEASURE(0.010000000000000),#32,'DISTANCE_ACCURACY_VALUE','');
#36=(GEOMETRIC_REPRESENTATION_CONTEXT(3)GLOBAL_UNCERTAINTY_ASSIGNED_CONTEXT((#34))GLOBAL_UNIT_ASSIGNED_CONTEXT((#24,#28,#32))REPRESENTATION_CONTEXT('None','None'));
#37=AXIS2_PLACEMENT_3D('',#38,#39,#40);
#38=CARTESIAN_POINT('',(0.0,0.0,0.0));
#39=DIRECTION('',(0.0,0.0,1.0));
#40=DIRECTION('',(1.0,0.0,0.0));
#41=SHAPE_REPRESENTATION('',(#37),#36);
#42=PRODUCT_DEFINITION_SHAPE('','',#12);
#43=SHAPE_DEFINITION_REPRESENTATION(#42,#41);
#44=CARTESIAN_POINT('',(-10.606601717798217,21.606601717798213,0.0));
#45=DIRECTION('',(-0.707106781186548,0.707106781186548,0.0));
#46=DIRECTION('',(0.707106781186548,0.707106781186548,0.0));
#47=AXIS2_PLACEMENT_3D('',#44,#45,#46);
#48=CONICAL_SURFACE('',#47,6.222499999999997,44.999999999999815);
#49=CARTESIAN_POINT('',(-14.299466882544962,17.206629771864922,-7.007810E-016));
#50=VERTEX_POINT('',#49);
#51=CARTESIAN_POINT('',(-10.253048327204944,21.253048327204944,0.0));
#52=DIRECTION('',(0.707106781186548,-0.707106781186548,0.0));
#53=DIRECTION('',(0.707106781186548,0.707106781186548,0.0));
#54=AXIS2_PLACEMENT_3D('',#51,#52,#53);
#55=CIRCLE('',#54,5.722500000000000);
#56=EDGE_CURVE('',#50,#50,#55,.T.);
#57=ORIENTED_EDGE('',*,*,#56,.T.);
#58=EDGE_LOOP('',(#57));
#59=FACE_OUTER_BOUND('',#58,.T.);
#60=CARTESIAN_POINT('',(-15.713680444918051,17.206629771864929,8.232416E-016));
#61=VERTEX_POINT('',#60);
#62=CARTESIAN_POINT('',(-10.960155108391490,21.960155108391490,0.0));
#63=DIRECTION('',(-0.707106781186547,0.707106781186547,0.0));
#64=DIRECTION('',(0.707106781186547,0.707106781186547,0.0));
#65=AXIS2_PLACEMENT_3D('',#62,#63,#64);
#66=CIRCLE('',#65,6.722499999999993);
#67=EDGE_CURVE('',#61,#61,#66,.T.);
#68=ORIENTED_EDGE('',*,*,#67,.T.);
#69=EDGE_LOOP('',(#68));
#70=FACE_BOUND('',#69,.T.);
#71=ADVANCED_FACE('',(#59,#70),#48,.F.);
#72=CARTESIAN_POINT('',(-10.253048327204944,29.345885437884974,-7.007810E-016));
#73=CARTESIAN_POINT('',(6.183648801476359,12.909188309203676,-7.007810E-016));
#74=CARTESIAN_POINT('',(-10.253048327204944,29.345885437884974,-5.722500000000000));
#75=CARTESIAN_POINT('',(6.183648801476357,12.909188309203675,-5.722500000000000));
#76=CARTESIAN_POINT('',(-14.299466882544962,25.299466882544955,-5.722500000000000));
#77=CARTESIAN_POINT('',(2.137230246136340,8.862769753863658,-5.722500000000000));
#78=CARTESIAN_POINT('',(-18.345885437884981,21.253048327204937,-5.722499999999998));
#79=CARTESIAN_POINT('',(-1.909188309203678,4.816351198523640,-5.722499999999998));
#80=CARTESIAN_POINT('',(-18.345885437884981,21.253048327204937,7.007810E-016));
#81=CARTESIAN_POINT('',(-1.909188309203678,4.816351198523639,7.007810E-016));
#82=CARTESIAN_POINT('',(-18.345885437884981,21.253048327204937,5.722500000000000));
#83=CARTESIAN_POINT('',(-1.909188309203677,4.816351198523640,5.722500000000000));
#84=CARTESIAN_POINT('',(-14.299466882544962,25.299466882544955,5.722500000000000));
#85=CARTESIAN_POINT('',(2.137230246136341,8.862769753863658,5.722500000000000));
#86=CARTESIAN_POINT('',(-10.253048327204944,29.345885437884974,5.722499999999998));
#87=CARTESIAN_POINT('',(6.183648801476358,12.909188309203675,5.722499999999998));
#88=CARTESIAN_POINT('',(-10.253048327204944,29.345885437884974,-7.007810E-016));
#89=CARTESIAN_POINT('',(6.183648801476359,12.909188309203676,-7.007810E-016));
#97=(BOUNDED_SURFACE()B_SPLINE_SURFACE(1,2,((#72,#74,#76,#78,#80,#82,#84,#86,#88),(#73,#75,#77,#79,#81,#83,#85,#87,#89)),.UNSPECIFIED.,.F.,.T.,.U.)B_SPLINE_SURFACE_WITH_KNOTS((2,2),(3,2,2,2,3),(-1.943643512450852,2.118392311052862),(0.0,8.988881980083797,17.977763960167593,26.966645940251386,35.955527920335186),.UNSPECIFIED.)GEOMETRIC_REPRESENTATION_ITEM()RATIONAL_B_SPLINE_SURFACE(((1.0,0.707106781186548,1.0,0.707106781186548,1.0,0.707106781186548,1.0,0.707106781186548,1.0),(1.0,0.707106781186548,1.0,0.707106781186548,1.0,0.707106781186548,1.0,0.707106781186548,1.0)))REPRESENTATION_ITEM('')SURFACE());
#98=CARTESIAN_POINT('',(-5.955606864543697,8.862769753863660,0.0));
#99=VERTEX_POINT('',#98);
#100=CARTESIAN_POINT('',(-1.909188309203679,12.909188309203678,0.0));
#101=DIRECTION('',(-0.707106781186548,0.707106781186548,0.0));
#102=DIRECTION('',(-0.707106781186548,-0.707106781186548,0.0));
#103=AXIS2_PLACEMENT_3D('',#100,#101,#102);
#104=CIRCLE('',#103,5.722500000000000);
#105=EDGE_CURVE('',#99,#99,#104,.T.);
#106=ORIENTED_EDGE('',*,*,#105,.F.);
#107=EDGE_LOOP('',(#106));
#108=FACE_OUTER_BOUND('',#107,.T.);
#109=ORIENTED_EDGE('',*,*,#56,.F.);
#110=EDGE_LOOP('',(#109));
#111=FACE_BOUND('',#110,.T.);
#112=ADVANCED_FACE('',(#108,#111),#97,.F.);
#113=CARTESIAN_POINT('',(-10.960155108391490,21.960155108391490,0.0));
#114=DIRECTION('',(0.707106781186548,-0.707106781186547,0.0));
#115=DIRECTION('',(0.0,0.0,-1.0));
#116=AXIS2_PLACEMENT_3D('',#113,#114,#115);
#117=PLANE('',#116);
#118=CARTESIAN_POINT('',(-10.960155108391490,21.960155108391490,8.500000000000000));
#119=VERTEX_POINT('',#118);
#120=CARTESIAN_POINT('',(-10.960155108391490,21.960155108391490,0.0));
#121=DIRECTION('',(0.707106781186548,-0.707106781186547,0.0));
#122=DIRECTION('',(0.0,0.0,-1.0));
#123=AXIS2_PLACEMENT_3D('',#120,#121,#122);
#124=CIRCLE('',#123,8.500000000000000);
#125=EDGE_CURVE('',#119,#119,#124,.T.);
#126=ORIENTED_EDGE('',*,*,#125,.F.);
#127=EDGE_LOOP('',(#126));
#128=FACE_OUTER_BOUND('',#127,.T.);
#129=ORIENTED_EDGE('',*,*,#67,.F.);
#130=EDGE_LOOP('',(#129));
#131=FACE_BOUND('',#130,.T.);
#132=ADVANCED_FACE('',(#128,#131),#117,.F.);
#133=CARTESIAN_POINT('',(-3.060660171779822,14.060660171779823,0.0));
#134=DIRECTION('',(0.707106781186548,-0.707106781186547,0.0));
#135=DIRECTION('',(0.0,0.0,-1.0));
#136=AXIS2_PLACEMENT_3D('',#133,#134,#135);
#137=TOROIDAL_SURFACE('',#136,6.500000000000002,2.0);
#138=CARTESIAN_POINT('',(-3.060660171779824,14.060660171779819,8.500000000000000));
#139=VERTEX_POINT('',#138);
#140=CARTESIAN_POINT('',(-3.060660171779822,14.060660171779823,0.0));
#141=DIRECTION('',(0.707106781186548,-0.707106781186547,0.0));
#142=DIRECTION('',(0.0,0.0,-1.0));
#143=AXIS2_PLACEMENT_3D('',#140,#141,#142);
#144=CIRCLE('',#143,8.500000000000000);
#145=EDGE_CURVE('',#139,#139,#144,.T.);
#146=ORIENTED_EDGE('',*,*,#145,.T.);
#147=EDGE_LOOP('',(#146));
#148=FACE_OUTER_BOUND('',#147,.T.);
#149=CARTESIAN_POINT('',(-2.060660171779821,13.060660171779823,7.914213562373096));
#150=VERTEX_POINT('',#149);
#151=CARTESIAN_POINT('',(-2.060660171779822,13.060660171779823,5.551115E-016));
#152=DIRECTION('',(-0.707106781186548,0.707106781186547,0.0));
#153=DIRECTION('',(0.0,0.0,-1.0));
#154=AXIS2_PLACEMENT_3D('',#151,#152,#153);
#155=CIRCLE('',#154,7.914213562373096);
#156=EDGE_CURVE('',#150,#150,#155,.T.);
#157=ORIENTED_EDGE('',*,*,#156,.T.);
#158=EDGE_LOOP('',(#157));
#159=FACE_BOUND('',#158,.T.);
#160=ADVANCED_FACE('',(#148,#159),#137,.T.);
#161=CARTESIAN_POINT('',(-1.237436867076460,12.237436867076461,0.0));
#162=DIRECTION('',(-0.707106781186548,0.707106781186547,0.0));
#163=DIRECTION('',(0.0,0.0,-1.0));
#164=AXIS2_PLACEMENT_3D('',#161,#162,#163);
#165=CONICAL_SURFACE('',#164,6.750000000000000,45.000000000000021);
#166=CARTESIAN_POINT('',(0.0,11.0,5.0));
#167=VERTEX_POINT('',#166);
#168=CARTESIAN_POINT('',(0.0,11.0,-5.0));
#169=VERTEX_POINT('',#168);
#170=CARTESIAN_POINT('',(0.000010707654254,11.000010707670477,4.999999999988535));
#171=CARTESIAN_POINT('',(-0.349294570031442,10.650704372080305,5.000000748036563));
#172=CARTESIAN_POINT('',(-0.727581700487826,10.324566993572553,4.962310362198776));
#173=CARTESIAN_POINT('',(-1.110090849187610,10.022539502854050,4.875212642188024));
#174=CARTESIAN_POINT('',(-1.729759145815200,9.533252223466302,4.734113544342471));
#175=CARTESIAN_POINT('',(-2.360886048340395,9.103841938772717,4.460707545139281));
#176=CARTESIAN_POINT('',(-2.918542709839669,8.741341891494500,4.059816307524481));
#177=CARTESIAN_POINT('',(-3.171415908201402,8.576963784515424,3.878029454699484));
#178=CARTESIAN_POINT('',(-3.407379322544419,8.427829563987546,3.674283039784729));
#179=CARTESIAN_POINT('',(-3.635673388545575,8.285937188682905,3.432474182251271));
#180=CARTESIAN_POINT('',(-3.972183299472578,8.076785056911140,3.076043204717530));
#181=CARTESIAN_POINT('',(-4.278015713233749,7.892470032902510,2.641565021886359));
#182=CARTESIAN_POINT('',(-4.506867245536330,7.755930517615412,2.165213068294150));
#183=CARTESIAN_POINT('',(-4.657945840511549,7.665792610647421,1.850744630445722));
#184=CARTESIAN_POINT('',(-4.776110161404988,7.596064808958987,1.518468709575310));
#185=CARTESIAN_POINT('',(-4.857251349726213,7.548294601691365,1.186216390707394));
#186=CARTESIAN_POINT('',(-4.908199365625649,7.518300004252699,0.977597355485812));
#187=CARTESIAN_POINT('',(-4.945052848494393,7.496677991321548,0.770657875134622));
#188=CARTESIAN_POINT('',(-4.969197566137417,7.482519312425916,0.554143978307050));
#189=CARTESIAN_POINT('',(-5.024871352521304,7.449871704946392,0.054898196296282));
#190=CARTESIAN_POINT('',(-5.004056289768504,7.461983368945378,-0.476849450814412));
#191=CARTESIAN_POINT('',(-4.902143700394598,7.521886345580247,-0.984371444466749));
#192=CARTESIAN_POINT('',(-4.816513628516399,7.572218657088323,-1.410806932596386));
#193=CARTESIAN_POINT('',(-4.674331644869026,7.655975761230847,-1.820732970889120));
#194=CARTESIAN_POINT('',(-4.497082744347234,7.761769388774344,-2.185462603316366));
#195=CARTESIAN_POINT('',(-4.372602713319939,7.836067136181163,-2.441608372500056));
#196=CARTESIAN_POINT('',(-4.231692383745533,7.920699775633181,-2.677246919910023));
#197=CARTESIAN_POINT('',(-4.072981195814669,8.017190513094075,-2.900142096267029));
#198=CARTESIAN_POINT('',(-3.623535480735555,8.290437466015339,-3.531347011506519));
#199=CARTESIAN_POINT('',(-3.038595745150883,8.652718908478727,-4.036475800349198));
#200=CARTESIAN_POINT('',(-2.402419927154519,9.083574210609633,-4.385017502087178));
#201=CARTESIAN_POINT('',(-1.857120676578532,9.452882610445757,-4.683770650785587));
#202=CARTESIAN_POINT('',(-1.272726055082580,9.874220505454890,-4.866906606019962));
#203=CARTESIAN_POINT('',(-0.724850453400477,10.336811609864299,-4.947180188774725));
#204=CARTESIAN_POINT('',(-0.472634732434977,10.549766427623355,-4.984134306619753));
#205=CARTESIAN_POINT('',(-0.227696323101734,10.772318696099928,-4.999989378769388));
#206=CARTESIAN_POINT('',(-0.000233351943693,10.999766655756638,-4.999999994554687));
#207=B_SPLINE_CURVE_WITH_KNOTS('',3,(#170,#171,#172,#173,#174,#175,#176,#177,#178,#179,#180,#181,#182,#183,#184,#185,#186,#187,#188,#189,#190,#191,#192,#193,#194,#195,#196,#197,#198,#199,#200,#201,#202,#203,#204,#205,#206),.UNSPECIFIED.,.F.,.U.,(4,3,3,3,3,3,3,3,3,3,3,3,4),(5.356806979907884,5.498956177664196,5.729239169692099,5.833662555518507,5.987584665184567,6.089197863182402,6.153000118661964,6.300117728190337,6.423730439395661,6.510542341082550,6.756380317218408,6.967100782155614,7.064106405007132),.UNSPECIFIED.);
#208=EDGE_CURVE('',#167,#169,#207,.T.);
#209=ORIENTED_EDGE('',*,*,#208,.F.);
#210=CARTESIAN_POINT('',(3.925231E-016,11.0,0.0));
#211=DIRECTION('',(0.707106781186548,-0.707106781186547,0.0));
#212=DIRECTION('',(0.707106781186547,0.707106781186548,0.0));
#213=AXIS2_PLACEMENT_3D('',#210,#211,#212);
#214=CIRCLE('',#213,4.999999999999999);
#215=EDGE_CURVE('',#169,#167,#214,.T.);
#216=ORIENTED_EDGE('',*,*,#215,.F.);
#217=EDGE_LOOP('',(#209,#216));
#218=FACE_OUTER_BOUND('',#217,.T.);
#219=ORIENTED_EDGE('',*,*,#156,.F.);
#220=EDGE_LOOP('',(#219));
#221=FACE_BOUND('',#220,.T.);
#222=ADVANCED_FACE('',(#218,#221),#165,.T.);
#223=CARTESIAN_POINT('',(-10.960155108391490,21.960155108391490,0.0));
#224=DIRECTION('',(0.707106781186548,-0.707106781186547,0.0));
#225=DIRECTION('',(0.0,0.0,-1.0));
#226=AXIS2_PLACEMENT_3D('',#223,#224,#225);
#227=CYLINDRICAL_SURFACE('',#226,8.500000000000000);
#228=ORIENTED_EDGE('',*,*,#125,.T.);
#229=EDGE_LOOP('',(#228));
#230=FACE_OUTER_BOUND('',#229,.T.);
#231=ORIENTED_EDGE('',*,*,#145,.F.);
#232=EDGE_LOOP('',(#231));
#233=FACE_BOUND('',#232,.T.);
#234=ADVANCED_FACE('',(#230,#233),#227,.T.);
#235=CARTESIAN_POINT('',(0.0,0.500000000000000,0.0));
#236=DIRECTION('',(0.0,1.0,0.0));
#237=DIRECTION('',(-1.0,0.0,0.0));
#238=AXIS2_PLACEMENT_3D('',#235,#236,#237);
#239=CONICAL_SURFACE('',#238,2.500000000000000,45.0);
#240=CARTESIAN_POINT('',(3.000000000000000,1.0,3.673819E-016));
#241=VERTEX_POINT('',#240);
#242=CARTESIAN_POINT('',(0.0,1.0,0.0));
#243=DIRECTION('',(0.0,-1.0,0.0));
#244=DIRECTION('',(-1.0,0.0,0.0));
#245=AXIS2_PLACEMENT_3D('',#242,#243,#244);
#246=CIRCLE('',#245,3.000000000000000);
#247=EDGE_CURVE('',#241,#241,#246,.T.);
#248=ORIENTED_EDGE('',*,*,#247,.T.);
#249=EDGE_LOOP('',(#248));
#250=FACE_OUTER_BOUND('',#249,.T.);
#251=CARTESIAN_POINT('',(2.000000000000000,0.0,-2.449213E-016));
#252=VERTEX_POINT('',#251);
#253=CARTESIAN_POINT('',(0.0,0.0,0.0));
#254=DIRECTION('',(0.0,1.0,0.0));
#255=DIRECTION('',(-1.0,0.0,0.0));
#256=AXIS2_PLACEMENT_3D('',#253,#254,#255);
#257=CIRCLE('',#256,2.000000000000000);
#258=EDGE_CURVE('',#252,#252,#257,.T.);
#259=ORIENTED_EDGE('',*,*,#258,.T.);
#260=EDGE_LOOP('',(#259));
#261=FACE_BOUND('',#260,.T.);
#262=ADVANCED_FACE('',(#250,#261),#239,.T.);
#263=CARTESIAN_POINT('',(0.0,0.0,0.0));
#264=DIRECTION('',(0.0,1.0,0.0));
#265=DIRECTION('',(-1.0,0.0,0.0));
#266=AXIS2_PLACEMENT_3D('',#263,#264,#265);
#267=CYLINDRICAL_SURFACE('',#266,3.000000000000000);
#268=CARTESIAN_POINT('',(3.000000000000000,7.000000000000001,3.673819E-016));
#269=VERTEX_POINT('',#268);
#270=CARTESIAN_POINT('',(0.0,7.000000000000001,0.0));
#271=DIRECTION('',(0.0,-1.0,0.0));
#272=DIRECTION('',(-1.0,0.0,0.0));
#273=AXIS2_PLACEMENT_3D('',#270,#271,#272);
#274=CIRCLE('',#273,3.000000000000000);
#275=EDGE_CURVE('',#269,#269,#274,.T.);
#276=ORIENTED_EDGE('',*,*,#275,.T.);
#277=EDGE_LOOP('',(#276));
#278=FACE_OUTER_BOUND('',#277,.T.);
#279=ORIENTED_EDGE('',*,*,#247,.F.);
#280=EDGE_LOOP('',(#279));
#281=FACE_BOUND('',#280,.T.);
#282=ADVANCED_FACE('',(#278,#281),#267,.T.);
#283=CARTESIAN_POINT('',(0.0,0.0,0.0));
#284=DIRECTION('',(0.0,-1.0,0.0));
#285=DIRECTION('',(0.0,0.0,-1.0));
#286=AXIS2_PLACEMENT_3D('',#283,#284,#285);
#287=PLANE('',#286);
#288=ORIENTED_EDGE('',*,*,#258,.F.);
#289=EDGE_LOOP('',(#288));
#290=FACE_OUTER_BOUND('',#289,.T.);
#291=CARTESIAN_POINT('',(1.500000000000000,0.0,1.836910E-016));
#292=VERTEX_POINT('',#291);
#293=CARTESIAN_POINT('',(0.0,0.0,0.0));
#294=DIRECTION('',(0.0,1.0,0.0));
#295=DIRECTION('',(-1.0,0.0,0.0));
#296=AXIS2_PLACEMENT_3D('',#293,#294,#295);
#297=CIRCLE('',#296,1.500000000000000);
#298=EDGE_CURVE('',#292,#292,#297,.T.);
#299=ORIENTED_EDGE('',*,*,#298,.T.);
#300=EDGE_LOOP('',(#299));
#301=FACE_BOUND('',#300,.T.);
#302=ADVANCED_FACE('',(#290,#301),#287,.T.);
#303=CARTESIAN_POINT('',(4.825183069451138,27.736396798538529,-1.867076E-015));
#304=CARTESIAN_POINT('',(0.522145248802531,10.477854751197469,0.0));
#305=CARTESIAN_POINT('',(4.825183069451136,27.736396798538529,-15.246339337750838));
#306=CARTESIAN_POINT('',(0.522145248802531,10.477854751197469,-7.850462E-017));
#307=CARTESIAN_POINT('',(-5.955606864543695,16.955606864543693,-15.246339337750838));
#308=CARTESIAN_POINT('',(0.522145248802531,10.477854751197469,-7.850462E-017));
#309=CARTESIAN_POINT('',(-16.736396798538525,6.174816930548859,-15.246339337750832));
#310=CARTESIAN_POINT('',(0.522145248802531,10.477854751197469,-7.850462E-017));
#311=CARTESIAN_POINT('',(-16.736396798538525,6.174816930548857,1.867076E-015));
#312=CARTESIAN_POINT('',(0.522145248802531,10.477854751197469,0.0));
#313=CARTESIAN_POINT('',(-16.736396798538522,6.174816930548859,15.246339337750838));
#314=CARTESIAN_POINT('',(0.522145248802531,10.477854751197469,7.850462E-017));
#315=CARTESIAN_POINT('',(-5.955606864543693,16.955606864543693,15.246339337750838));
#316=CARTESIAN_POINT('',(0.522145248802531,10.477854751197469,7.850462E-017));
#317=CARTESIAN_POINT('',(4.825183069451137,27.736396798538529,15.246339337750832));
#318=CARTESIAN_POINT('',(0.522145248802531,10.477854751197469,7.850462E-017));
#319=CARTESIAN_POINT('',(4.825183069451138,27.736396798538529,-1.867076E-015));
#320=CARTESIAN_POINT('',(0.522145248802531,10.477854751197469,0.0));
#328=(BOUNDED_SURFACE()B_SPLINE_SURFACE(1,2,((#303,#305,#307,#309,#311,#313,#315,#317,#319),(#304,#306,#308,#310,#312,#314,#316,#318,#320)),.UNSPECIFIED.,.F.,.T.,.U.)B_SPLINE_SURFACE_WITH_KNOTS((2,2),(3,2,2,2,3),(-5.049841450036042,1.166633397215331),(0.0,4.494440990041898,8.988881980083797,13.483322970125693,17.977763960167593),.UNSPECIFIED.)GEOMETRIC_REPRESENTATION_ITEM()RATIONAL_B_SPLINE_SURFACE(((1.0,0.707106781186548,1.0,0.707106781186548,1.0,0.707106781186548,1.0,0.707106781186548,1.0),(1.0,0.707106781186548,1.0,0.707106781186548,1.0,0.707106781186548,1.0,0.707106781186548,1.0)))REPRESENTATION_ITEM('')SURFACE());
#329=CARTESIAN_POINT('',(0.546432266658678,12.015281875532517,1.396929410512307));
#330=VERTEX_POINT('',#329);
#331=CARTESIAN_POINT('',(0.546432266658678,12.015281875532517,1.396929410512306));
#332=CARTESIAN_POINT('',(0.761157664872140,12.395828424617557,1.312935985238270));
#333=CARTESIAN_POINT('',(0.933373439625997,12.808835876634340,1.189610117467641));
#334=CARTESIAN_POINT('',(1.147964226448894,13.367981202816885,0.972287341858580));
#335=CARTESIAN_POINT('',(1.226645267567072,13.587645725637337,0.873733388527400));
#336=CARTESIAN_POINT('',(1.337563019764360,13.908656873961032,0.684234179137205));
#337=CARTESIAN_POINT('',(1.380372228778667,14.035854849425800,0.596605502130681));
#338=CARTESIAN_POINT('',(1.438704355828425,14.211795195831067,0.430118470643289));
#339=CARTESIAN_POINT('',(1.460143803619490,14.277251423650396,0.354137740255183));
#340=CARTESIAN_POINT('',(1.484640278726188,14.352430736751192,0.219920403510844));
#341=CARTESIAN_POINT('',(1.491691235524571,14.374170524763194,0.167242134148934));
#342=CARTESIAN_POINT('',(1.497509004050232,14.392122443379415,0.089266861588458));
#343=CARTESIAN_POINT('',(1.498692045815484,14.395776081410744,0.066667180953305));
#344=CARTESIAN_POINT('',(1.499828591878734,14.399286372822552,0.027780262100815));
#345=CARTESIAN_POINT('',(1.500040541006099,14.399941177199674,0.011713395258451));
#346=CARTESIAN_POINT('',(1.499944451720756,14.399644350332764,-0.021233790262961));
#347=CARTESIAN_POINT('',(1.499611283173425,14.398615076428925,-0.038024076137239));
#348=CARTESIAN_POINT('',(1.498055330866267,14.393809875674231,-0.080631449835493));
#349=CARTESIAN_POINT('',(1.496453585225071,14.388863916051495,-0.106105573983722));
#350=CARTESIAN_POINT('',(1.489583059952790,14.367672382592589,-0.184388722174211));
#351=CARTESIAN_POINT('',(1.482303843822505,14.345244973328628,-0.234669391781358));
#352=CARTESIAN_POINT('',(1.460294665388913,14.277742038409247,-0.349771750067974));
#353=CARTESIAN_POINT('',(1.443554079071380,14.226629880477390,-0.411739294037553));
#354=CARTESIAN_POINT('',(1.392013629103992,14.070711007772845,-0.569070891935405));
#355=CARTESIAN_POINT('',(1.350759872547134,13.947636084934585,-0.657760781748771));
#356=CARTESIAN_POINT('',(1.215850046737973,13.555017931256501,-0.899133016834983));
#357=CARTESIAN_POINT('',(1.095920735561285,13.219447435265025,-1.038911876562588));
#358=CARTESIAN_POINT('',(0.844343696704469,12.603650594162495,-1.249275340530658));
#359=CARTESIAN_POINT('',(0.683498324278688,12.238966940831109,-1.353662458328128));
#360=CARTESIAN_POINT('',(0.377704563783734,11.730855478242749,-1.455075331004621));
#361=CARTESIAN_POINT('',(0.274340847074997,11.578799447724851,-1.479124679008675));
#362=CARTESIAN_POINT('',(0.057909897435956,11.300992380083807,-1.502440379064631));
#363=CARTESIAN_POINT('',(-0.051748922021020,11.175973513279560,-1.503625904400400));
#364=CARTESIAN_POINT('',(-0.348543177645134,10.869908716619804,-1.470274169531075));
#365=CARTESIAN_POINT('',(-0.528775733089557,10.711941766499180,-1.416335285235413));
#366=CARTESIAN_POINT('',(-0.869085082520816,10.432412880493576,-1.238100756234219));
#367=CARTESIAN_POINT('',(-1.024815515826378,10.315319669414571,-1.113178736170663));
#368=CARTESIAN_POINT('',(-1.260437034317025,10.142286381156385,-0.830650425525956));
#369=CARTESIAN_POINT('',(-1.350168181705590,10.078708830741466,-0.678186824211948));
#370=CARTESIAN_POINT('',(-1.466695226406219,9.996725980654453,-0.354100054811398));
#371=CARTESIAN_POINT('',(-1.497216561318698,9.975611956034721,-0.190512218896146));
#372=CARTESIAN_POINT('',(-1.502296810183697,9.972080904177886,0.135901266127182));
#373=CARTESIAN_POINT('',(-1.479353974760149,9.987944590016751,0.292907401065010));
#374=CARTESIAN_POINT('',(-1.386487177028855,10.053077729005000,0.594204559957026));
#375=CARTESIAN_POINT('',(-1.316869082356282,10.102158560885146,0.733818940474584));
#376=CARTESIAN_POINT('',(-1.131213988892829,10.236563051358317,1.000384899698509));
#377=CARTESIAN_POINT('',(-1.011577837113034,10.324931970827214,1.119043641588836));
#378=CARTESIAN_POINT('',(-0.720830922654488,10.551478958068500,1.330517001456297));
#379=CARTESIAN_POINT('',(-0.547243325600403,10.694252994409677,1.407684688869886));
#380=CARTESIAN_POINT('',(-0.242927839147082,10.976392881362480,1.486633276089666));
#381=CARTESIAN_POINT('',(-0.113410259293513,11.107840309761706,1.500679017908322));
#382=CARTESIAN_POINT('',(0.118315036518761,11.374440278603362,1.499342587061861));
#383=CARTESIAN_POINT('',(0.219998062514238,11.505658943311268,1.486905242007464));
#384=CARTESIAN_POINT('',(0.397745277778426,11.763683775530762,1.448825175872929));
#385=CARTESIAN_POINT('',(0.474897875195018,11.888505229458577,1.424911282307247));
#386=CARTESIAN_POINT('',(0.546432266658678,12.015281875532517,1.396929410512306));
#387=B_SPLINE_CURVE_WITH_KNOTS('',3,(#331,#332,#333,#334,#335,#336,#337,#338,#339,#340,#341,#342,#343,#344,#345,#346,#347,#348,#349,#350,#351,#352,#353,#354,#355,#356,#357,#358,#359,#360,#361,#362,#363,#364,#365,#366,#367,#368,#369,#370,#371,#372,#373,#374,#375,#376,#377,#378,#379,#380,#381,#382,#383,#384,#385,#386),.UNSPECIFIED.,.T.,.U.,(4,2,2,2,2,2,2,2,2,2,2,2,2,2,2,2,2,2,2,2,2,2,2,2,2,2,2,4),(0.0,0.133484010777679,0.213805333933411,0.264688519555564,0.298003296449660,0.317407305485767,0.325198168849747,0.330668696316355,0.336401405231182,0.345279905098552,0.364160791615512,0.391472143141042,0.441962510112640,0.555991980763169,0.656505760699837,0.701435471593253,0.742047017595878,0.805561432834343,0.871347661855145,0.927467086571722,0.977917313449083,1.025975822858247,1.075152215113789,1.132157638078956,1.203372766589671,1.259214902081267,1.309385558288732,1.353854901741142),.UNSPECIFIED.);
#388=EDGE_CURVE('',#330,#330,#387,.T.);
#389=ORIENTED_EDGE('',*,*,#388,.F.);
#390=EDGE_LOOP('',(#389));
#391=FACE_OUTER_BOUND('',#390,.T.);
#392=ORIENTED_EDGE('',*,*,#105,.T.);
#393=EDGE_LOOP('',(#392));
#394=FACE_BOUND('',#393,.T.);
#395=ADVANCED_FACE('',(#391,#394),#328,.F.);
#396=CARTESIAN_POINT('',(0.0,0.0,0.0));
#397=DIRECTION('',(0.0,1.0,0.0));
#398=DIRECTION('',(-1.0,0.0,0.0));
#399=AXIS2_PLACEMENT_3D('',#396,#397,#398);
#400=CYLINDRICAL_SURFACE('',#399,1.500000000000000);
#401=ORIENTED_EDGE('',*,*,#388,.T.);
#402=EDGE_LOOP('',(#401));
#403=FACE_OUTER_BOUND('',#402,.T.);
#404=ORIENTED_EDGE('',*,*,#298,.F.);
#405=EDGE_LOOP('',(#404));
#406=FACE_BOUND('',#405,.T.);
#407=ADVANCED_FACE('',(#403,#406),#400,.F.);
#408=CARTESIAN_POINT('',(0.0,7.000000000000001,0.0));
#409=DIRECTION('',(0.0,1.0,0.0));
#410=DIRECTION('',(0.0,0.0,1.0));
#411=AXIS2_PLACEMENT_3D('',#408,#409,#410);
#412=PLANE('',#411);
#413=CARTESIAN_POINT('',(-4.000000000000007,7.0,2.999999999999990));
#414=VERTEX_POINT('',#413);
#415=CARTESIAN_POINT('',(0.0,7.000000000000001,0.0));
#416=DIRECTION('',(0.0,1.0,0.0));
#417=DIRECTION('',(1.0,0.0,0.0));
#418=AXIS2_PLACEMENT_3D('',#415,#416,#417);
#419=CIRCLE('',#418,5.0);
#420=EDGE_CURVE('',#414,#414,#419,.T.);
#421=ORIENTED_EDGE('',*,*,#420,.F.);
#422=EDGE_LOOP('',(#421));
#423=FACE_OUTER_BOUND('',#422,.T.);
#424=ORIENTED_EDGE('',*,*,#275,.F.);
#425=EDGE_LOOP('',(#424));
#426=FACE_BOUND('',#425,.T.);
#427=ADVANCED_FACE('',(#423,#426),#412,.F.);
#428=CARTESIAN_POINT('',(0.0,11.0,0.0));
#429=DIRECTION('',(0.0,0.0,1.0));
#430=DIRECTION('',(1.0,0.0,0.0));
#431=AXIS2_PLACEMENT_3D('',#428,#429,#430);
#432=SPHERICAL_SURFACE('',#431,5.0);
#433=CARTESIAN_POINT('',(0.0,11.0,0.0));
#434=DIRECTION('',(0.0,1.0,0.0));
#435=DIRECTION('',(1.0,0.0,0.0));
#436=AXIS2_PLACEMENT_3D('',#433,#434,#435);
#437=CIRCLE('',#436,5.0);
#438=EDGE_CURVE('',#167,#169,#437,.T.);
#439=ORIENTED_EDGE('',*,*,#438,.T.);
#440=ORIENTED_EDGE('',*,*,#215,.T.);
#441=EDGE_LOOP('',(#439,#440));
#442=FACE_OUTER_BOUND('',#441,.T.);
#443=ADVANCED_FACE('',(#442),#432,.T.);
#444=CARTESIAN_POINT('',(0.0,0.0,0.0));
#445=DIRECTION('',(0.0,1.0,0.0));
#446=DIRECTION('',(1.0,0.0,0.0));
#447=AXIS2_PLACEMENT_3D('',#444,#445,#446);
#448=CYLINDRICAL_SURFACE('',#447,5.0);
#449=ORIENTED_EDGE('',*,*,#420,.T.);
#450=EDGE_LOOP('',(#449));
#451=FACE_OUTER_BOUND('',#450,.T.);
#452=ORIENTED_EDGE('',*,*,#208,.T.);
#453=ORIENTED_EDGE('',*,*,#438,.F.);
#454=EDGE_LOOP('',(#452,#453));
#455=FACE_BOUND('',#454,.T.);
#456=ADVANCED_FACE('',(#451,#455),#448,.T.);
#457=CLOSED_SHELL('',(#71,#112,#132,#160,#222,#234,#262,#282,#302,#395,#407,#427,#443,#456));
#458=MANIFOLD_SOLID_BREP('',#457);
#459=COLOUR_RGB('Metall - Messing',0.780391991138458,0.568626999855042,0.113724999129772);
#460=FILL_AREA_STYLE_COLOUR('Metall - Messing',#459);
#461=FILL_AREA_STYLE('Metall - Messing',(#460));
#462=SURFACE_STYLE_FILL_AREA(#461);
#463=SURFACE_SIDE_STYLE('Metall - Messing',(#462));
#464=SURFACE_STYLE_USAGE(.BOTH.,#463);
#465=PRESENTATION_STYLE_ASSIGNMENT((#464));
#466=STYLED_ITEM('',(#465),#458);
#467=MECHANICAL_DESIGN_GEOMETRIC_PRESENTATION_REPRESENTATION('',(#466),#36);
#468=ADVANCED_BREP_SHAPE_REPRESENTATION('ABSR',(#458),#36);
#469=SHAPE_REPRESENTATION_RELATIONSHIP('SRR','None',#468,#41);
ENDSEC;
END-ISO-10303-21;
