ISO-10303-21;
HEADER;
/****************************************************************
 * Generated by software with PDE/Lib inside                    *
 * PDElib Version 4.0, created Wed Jun 15 17:58:53 EDT 2005     *
 * International Technegroup Inc. (www.iti-oh.com)              *
 ****************************************************************/
FILE_DESCRIPTION((''),'2;1');
FILE_NAME('I:\\DATEN\\POOL\\CI\\Technische Zeichnungen\\3D Daten als STP\\Anschlussteile\\Sechskantnippel\\Sechskantnippel R1 4 Messing A260011602.stp','2006-02-22T14:04:55',('ScheitB'),(''),'Autodesk Inventor 10','Autodesk Inventor 10','');
FILE_SCHEMA(('AUTOMOTIVE_DESIGN { 1 0 10303 214 1 1 1 1 }'));
ENDSEC;
DATA;
#5=APPLICATION_CONTEXT('automotive design');
#6=APPLICATION_PROTOCOL_DEFINITION('Draft International Standard','automotive_design',1998,#5);
#7=PRODUCT_CONTEXT('None',#5,'mechanical');
#8=PRODUCT('ANNIP01C','ANNIP01C','None',(#7));
#9=PRODUCT_RELATED_PRODUCT_CATEGORY('part','description',(#8));
#10=PRODUCT_DEFINITION_FORMATION('None','None',#8);
#11=PRODUCT_DEFINITION_CONTEXT('part definition',#5,'design');
#12=PRODUCT_DEFINITION('None','None',#10,#11);
#18=(NAMED_UNIT(*)PLANE_ANGLE_UNIT()SI_UNIT($,.RADIAN.));
#19=DIMENSIONAL_EXPONENTS(0.0,0.0,0.0,0.0,0.0,0.0,0.0);
#20=PLANE_ANGLE_MEASURE_WITH_UNIT(PLANE_ANGLE_MEASURE(0.017453292500000),#18);
#24=(CONVERSION_BASED_UNIT('DEGREE',#20)NAMED_UNIT(#19)PLANE_ANGLE_UNIT());
#28=(NAMED_UNIT(*)SI_UNIT($,.STERADIAN.)SOLID_ANGLE_UNIT());
#32=(LENGTH_UNIT()NAMED_UNIT(*)SI_UNIT(.MILLI.,.METRE.));
#34=UNCERTAINTY_MEASURE_WITH_UNIT(LENGTH_MEASURE(0.010000000000000),#32,'DISTANCE_ACCURACY_VALUE','');
#36=(GEOMETRIC_REPRESENTATION_CONTEXT(3)GLOBAL_UNCERTAINTY_ASSIGNED_CONTEXT((#34))GLOBAL_UNIT_ASSIGNED_CONTEXT((#24,#28,#32))REPRESENTATION_CONTEXT('None','None'));
#37=AXIS2_PLACEMENT_3D('',#38,#39,#40);
#38=CARTESIAN_POINT('',(0.0,0.0,0.0));
#39=DIRECTION('',(0.0,0.0,1.0));
#40=DIRECTION('',(1.0,0.0,0.0));
#41=SHAPE_REPRESENTATION('',(#37),#36);
#42=PRODUCT_DEFINITION_SHAPE('','',#12);
#43=SHAPE_DEFINITION_REPRESENTATION(#42,#41);
#44=CARTESIAN_POINT('',(0.0,0.0,0.500000000000000));
#45=DIRECTION('',(0.0,0.0,1.0));
#46=DIRECTION('',(1.0,0.0,0.0));
#47=AXIS2_PLACEMENT_3D('',#44,#45,#46);
#48=CONICAL_SURFACE('',#47,6.050000000000000,44.999999999999979);
#49=CARTESIAN_POINT('',(-6.550000000000001,8.021172E-016,1.0));
#50=VERTEX_POINT('',#49);
#51=CARTESIAN_POINT('',(0.0,0.0,1.0));
#52=DIRECTION('',(0.0,0.0,-1.0));
#53=DIRECTION('',(1.0,0.0,0.0));
#54=AXIS2_PLACEMENT_3D('',#51,#52,#53);
#55=CIRCLE('',#54,6.550000000000001);
#56=EDGE_CURVE('',#50,#50,#55,.T.);
#57=ORIENTED_EDGE('',*,*,#56,.T.);
#58=EDGE_LOOP('',(#57));
#59=FACE_OUTER_BOUND('',#58,.T.);
#60=CARTESIAN_POINT('',(-5.550000000000001,-6.796565E-016,0.0));
#61=VERTEX_POINT('',#60);
#62=CARTESIAN_POINT('',(0.0,0.0,0.0));
#63=DIRECTION('',(0.0,0.0,1.0));
#64=DIRECTION('',(1.0,0.0,0.0));
#65=AXIS2_PLACEMENT_3D('',#62,#63,#64);
#66=CIRCLE('',#65,5.550000000000001);
#67=EDGE_CURVE('',#61,#61,#66,.T.);
#68=ORIENTED_EDGE('',*,*,#67,.T.);
#69=EDGE_LOOP('',(#68));
#70=FACE_BOUND('',#69,.T.);
#71=ADVANCED_FACE('',(#59,#70),#48,.T.);
#72=CARTESIAN_POINT('',(0.0,0.0,0.0));
#73=DIRECTION('',(0.0,0.0,1.0));
#74=DIRECTION('',(1.0,0.0,0.0));
#75=AXIS2_PLACEMENT_3D('',#72,#73,#74);
#76=CYLINDRICAL_SURFACE('',#75,6.550000000000001);
#77=CARTESIAN_POINT('',(-6.550000000000001,8.021172E-016,8.0));
#78=VERTEX_POINT('',#77);
#79=CARTESIAN_POINT('',(0.0,0.0,8.0));
#80=DIRECTION('',(0.0,0.0,-1.0));
#81=DIRECTION('',(1.0,0.0,0.0));
#82=AXIS2_PLACEMENT_3D('',#79,#80,#81);
#83=CIRCLE('',#82,6.550000000000001);
#84=EDGE_CURVE('',#78,#78,#83,.T.);
#85=ORIENTED_EDGE('',*,*,#84,.T.);
#86=EDGE_LOOP('',(#85));
#87=FACE_OUTER_BOUND('',#86,.T.);
#88=ORIENTED_EDGE('',*,*,#56,.F.);
#89=EDGE_LOOP('',(#88));
#90=FACE_BOUND('',#89,.T.);
#91=ADVANCED_FACE('',(#87,#90),#76,.T.);
#92=CARTESIAN_POINT('',(-2.775558E-016,-1.177509E-016,0.0));
#93=DIRECTION('',(0.0,0.0,1.0));
#94=DIRECTION('',(1.0,0.0,0.0));
#95=AXIS2_PLACEMENT_3D('',#92,#93,#94);
#96=PLANE('',#95);
#97=ORIENTED_EDGE('',*,*,#67,.F.);
#98=EDGE_LOOP('',(#97));
#99=FACE_OUTER_BOUND('',#98,.T.);
#100=CARTESIAN_POINT('',(-4.0,0.0,0.0));
#101=VERTEX_POINT('',#100);
#102=CARTESIAN_POINT('',(0.0,0.0,0.0));
#103=DIRECTION('',(0.0,0.0,1.0));
#104=DIRECTION('',(-1.0,0.0,0.0));
#105=AXIS2_PLACEMENT_3D('',#102,#103,#104);
#106=CIRCLE('',#105,4.0);
#107=EDGE_CURVE('',#101,#101,#106,.T.);
#108=ORIENTED_EDGE('',*,*,#107,.T.);
#109=EDGE_LOOP('',(#108));
#110=FACE_BOUND('',#109,.T.);
#111=ADVANCED_FACE('',(#99,#110),#96,.F.);
#112=CARTESIAN_POINT('',(0.0,0.0,19.500000000000000));
#113=DIRECTION('',(0.0,0.0,-1.0));
#114=DIRECTION('',(-1.0,0.0,0.0));
#115=AXIS2_PLACEMENT_3D('',#112,#113,#114);
#116=CONICAL_SURFACE('',#115,6.050000000000000,44.999999999999979);
#117=CARTESIAN_POINT('',(6.550000000000001,8.021172E-016,19.0));
#118=VERTEX_POINT('',#117);
#119=CARTESIAN_POINT('',(0.0,0.0,19.0));
#120=DIRECTION('',(0.0,0.0,1.0));
#121=DIRECTION('',(-1.0,0.0,0.0));
#122=AXIS2_PLACEMENT_3D('',#119,#120,#121);
#123=CIRCLE('',#122,6.550000000000001);
#124=EDGE_CURVE('',#118,#118,#123,.T.);
#125=ORIENTED_EDGE('',*,*,#124,.T.);
#126=EDGE_LOOP('',(#125));
#127=FACE_OUTER_BOUND('',#126,.T.);
#128=CARTESIAN_POINT('',(5.550000000000001,-6.796565E-016,20.0));
#129=VERTEX_POINT('',#128);
#130=CARTESIAN_POINT('',(0.0,0.0,20.0));
#131=DIRECTION('',(0.0,0.0,-1.0));
#132=DIRECTION('',(-1.0,0.0,0.0));
#133=AXIS2_PLACEMENT_3D('',#130,#131,#132);
#134=CIRCLE('',#133,5.550000000000001);
#135=EDGE_CURVE('',#129,#129,#134,.T.);
#136=ORIENTED_EDGE('',*,*,#135,.T.);
#137=EDGE_LOOP('',(#136));
#138=FACE_BOUND('',#137,.T.);
#139=ADVANCED_FACE('',(#127,#138),#116,.T.);
#140=CARTESIAN_POINT('',(0.0,0.0,20.0));
#141=DIRECTION('',(0.0,0.0,-1.0));
#142=DIRECTION('',(-1.0,0.0,0.0));
#143=AXIS2_PLACEMENT_3D('',#140,#141,#142);
#144=CYLINDRICAL_SURFACE('',#143,6.550000000000001);
#145=CARTESIAN_POINT('',(6.550000000000001,8.021172E-016,12.0));
#146=VERTEX_POINT('',#145);
#147=CARTESIAN_POINT('',(0.0,0.0,11.999999999999996));
#148=DIRECTION('',(0.0,0.0,1.0));
#149=DIRECTION('',(-1.0,0.0,0.0));
#150=AXIS2_PLACEMENT_3D('',#147,#148,#149);
#151=CIRCLE('',#150,6.550000000000001);
#152=EDGE_CURVE('',#146,#146,#151,.T.);
#153=ORIENTED_EDGE('',*,*,#152,.T.);
#154=EDGE_LOOP('',(#153));
#155=FACE_OUTER_BOUND('',#154,.T.);
#156=ORIENTED_EDGE('',*,*,#124,.F.);
#157=EDGE_LOOP('',(#156));
#158=FACE_BOUND('',#157,.T.);
#159=ADVANCED_FACE('',(#155,#158),#144,.T.);
#160=CARTESIAN_POINT('',(-4.163336E-016,-2.775558E-016,20.0));
#161=DIRECTION('',(0.0,0.0,1.0));
#162=DIRECTION('',(1.0,0.0,0.0));
#163=AXIS2_PLACEMENT_3D('',#160,#161,#162);
#164=PLANE('',#163);
#165=ORIENTED_EDGE('',*,*,#135,.F.);
#166=EDGE_LOOP('',(#165));
#167=FACE_OUTER_BOUND('',#166,.T.);
#168=CARTESIAN_POINT('',(4.0,-4.898425E-016,20.0));
#169=VERTEX_POINT('',#168);
#170=CARTESIAN_POINT('',(0.0,0.0,20.0));
#171=DIRECTION('',(0.0,0.0,-1.0));
#172=DIRECTION('',(-1.0,0.0,0.0));
#173=AXIS2_PLACEMENT_3D('',#170,#171,#172);
#174=CIRCLE('',#173,4.0);
#175=EDGE_CURVE('',#169,#169,#174,.T.);
#176=ORIENTED_EDGE('',*,*,#175,.T.);
#177=EDGE_LOOP('',(#176));
#178=FACE_BOUND('',#177,.T.);
#179=ADVANCED_FACE('',(#167,#178),#164,.T.);
#180=CARTESIAN_POINT('',(0.0,0.0,9.659243834989940));
#181=DIRECTION('',(0.0,0.0,1.0));
#182=DIRECTION('',(0.0,1.0,0.0));
#183=AXIS2_PLACEMENT_3D('',#180,#181,#182);
#184=CONICAL_SURFACE('',#183,9.423894624348007,59.999999999999993);
#185=CARTESIAN_POINT('',(-7.000000000000002,4.041451884327383,8.885022403474620));
#186=VERTEX_POINT('',#185);
#187=CARTESIAN_POINT('',(-7.000000000000002,-4.041451884327384,8.885022403474620));
#188=VERTEX_POINT('',#187);
#189=CARTESIAN_POINT('',(-7.000000000000002,4.041451884327383,8.885022403474620));
#190=CARTESIAN_POINT('',(-7.000000000000002,2.359224E-015,7.718355736807951));
#191=CARTESIAN_POINT('',(-7.000000000000002,-4.041451884327384,8.885022403474620));
#199=(BOUNDED_CURVE()B_SPLINE_CURVE(2,(#189,#190,#191),.UNSPECIFIED.,.F.,.U.)B_SPLINE_CURVE_WITH_KNOTS((3,3),(0.516143239803975,1.596590951205797),.UNSPECIFIED.)CURVE()GEOMETRIC_REPRESENTATION_ITEM()RATIONAL_B_SPLINE_CURVE((1.279447879843973,1.477379155684028,1.279447879843974))REPRESENTATION_ITEM(''));
#200=EDGE_CURVE('',#186,#188,#199,.T.);
#201=ORIENTED_EDGE('',*,*,#200,.F.);
#202=CARTESIAN_POINT('',(4.187887E-016,8.082903768654763,8.885022403474620));
#203=VERTEX_POINT('',#202);
#204=CARTESIAN_POINT('',(4.187887E-016,8.082903768654763,8.885022403474620));
#205=CARTESIAN_POINT('',(-3.500000000000003,6.062177826491072,7.718355736807952));
#206=CARTESIAN_POINT('',(-7.000000000000003,4.041451884327383,8.885022403474620));
#214=(BOUNDED_CURVE()B_SPLINE_CURVE(2,(#204,#205,#206),.UNSPECIFIED.,.F.,.U.)B_SPLINE_CURVE_WITH_KNOTS((3,3),(0.516143239803976,1.596590951205798),.UNSPECIFIED.)CURVE()GEOMETRIC_REPRESENTATION_ITEM()RATIONAL_B_SPLINE_CURVE((1.279447879843973,1.477379155684027,1.279447879843972))REPRESENTATION_ITEM(''));
#215=EDGE_CURVE('',#203,#186,#214,.T.);
#216=ORIENTED_EDGE('',*,*,#215,.F.);
#217=CARTESIAN_POINT('',(7.000000000000002,4.041451884327381,8.885022403474620));
#218=VERTEX_POINT('',#217);
#219=CARTESIAN_POINT('',(7.000000000000002,4.041451884327381,8.885022403474620));
#220=CARTESIAN_POINT('',(3.500000000000001,6.062177826491073,7.718355736807952));
#221=CARTESIAN_POINT('',(4.187887E-016,8.082903768654763,8.885022403474620));
#229=(BOUNDED_CURVE()B_SPLINE_CURVE(2,(#219,#220,#221),.UNSPECIFIED.,.F.,.U.)B_SPLINE_CURVE_WITH_KNOTS((3,3),(0.516143239803975,1.596590951205798),.UNSPECIFIED.)CURVE()GEOMETRIC_REPRESENTATION_ITEM()RATIONAL_B_SPLINE_CURVE((1.279447879843974,1.477379155684029,1.279447879843974))REPRESENTATION_ITEM(''));
#230=EDGE_CURVE('',#218,#203,#229,.T.);
#231=ORIENTED_EDGE('',*,*,#230,.F.);
#232=CARTESIAN_POINT('',(7.000000000000003,-4.041451884327381,8.885022403474620));
#233=VERTEX_POINT('',#232);
#234=CARTESIAN_POINT('',(7.000000000000003,-4.041451884327381,8.885022403474620));
#235=CARTESIAN_POINT('',(7.000000000000002,2.636780E-015,7.718355736807951));
#236=CARTESIAN_POINT('',(7.000000000000002,4.041451884327381,8.885022403474620));
#244=(BOUNDED_CURVE()B_SPLINE_CURVE(2,(#234,#235,#236),.UNSPECIFIED.,.F.,.U.)B_SPLINE_CURVE_WITH_KNOTS((3,3),(0.516143239803975,1.596590951205798),.UNSPECIFIED.)CURVE()GEOMETRIC_REPRESENTATION_ITEM()RATIONAL_B_SPLINE_CURVE((1.279447879843973,1.477379155684028,1.279447879843973))REPRESENTATION_ITEM(''));
#245=EDGE_CURVE('',#233,#218,#244,.T.);
#246=ORIENTED_EDGE('',*,*,#245,.F.);
#247=CARTESIAN_POINT('',(2.288304E-015,-8.082903768654763,8.885022403474620));
#248=VERTEX_POINT('',#247);
#249=CARTESIAN_POINT('',(2.288304E-015,-8.082903768654763,8.885022403474620));
#250=CARTESIAN_POINT('',(3.500000000000000,-6.062177826491072,7.718355736807951));
#251=CARTESIAN_POINT('',(7.000000000000004,-4.041451884327381,8.885022403474620));
#259=(BOUNDED_CURVE()B_SPLINE_CURVE(2,(#249,#250,#251),.UNSPECIFIED.,.F.,.U.)B_SPLINE_CURVE_WITH_KNOTS((3,3),(0.516143239803975,1.596590951205797),.UNSPECIFIED.)CURVE()GEOMETRIC_REPRESENTATION_ITEM()RATIONAL_B_SPLINE_CURVE((1.279447879843974,1.477379155684028,1.279447879843974))REPRESENTATION_ITEM(''));
#260=EDGE_CURVE('',#248,#233,#259,.T.);
#261=ORIENTED_EDGE('',*,*,#260,.F.);
#262=CARTESIAN_POINT('',(-7.000000000000002,-4.041451884327384,8.885022403474620));
#263=CARTESIAN_POINT('',(-3.500000000000002,-6.062177826491073,7.718355736807952));
#264=CARTESIAN_POINT('',(2.288304E-015,-8.082903768654763,8.885022403474620));
#272=(BOUNDED_CURVE()B_SPLINE_CURVE(2,(#262,#263,#264),.UNSPECIFIED.,.F.,.U.)B_SPLINE_CURVE_WITH_KNOTS((3,3),(0.516143239803975,1.596590951205797),.UNSPECIFIED.)CURVE()GEOMETRIC_REPRESENTATION_ITEM()RATIONAL_B_SPLINE_CURVE((1.279447879843974,1.477379155684029,1.279447879843974))REPRESENTATION_ITEM(''));
#273=EDGE_CURVE('',#188,#248,#272,.T.);
#274=ORIENTED_EDGE('',*,*,#273,.F.);
#275=EDGE_LOOP('',(#201,#216,#231,#246,#261,#274));
#276=FACE_OUTER_BOUND('',#275,.T.);
#277=ORIENTED_EDGE('',*,*,#84,.F.);
#278=EDGE_LOOP('',(#277));
#279=FACE_BOUND('',#278,.T.);
#280=ADVANCED_FACE('',(#276,#279),#184,.T.);
#281=CARTESIAN_POINT('',(7.000000000000002,4.041451884327381,0.0));
#282=DIRECTION('',(1.0,0.0,0.0));
#283=DIRECTION('',(0.0,0.0,-1.0));
#284=AXIS2_PLACEMENT_3D('',#281,#282,#283);
#285=PLANE('',#284);
#286=ORIENTED_EDGE('',*,*,#245,.T.);
#287=CARTESIAN_POINT('',(7.000000000000002,4.041451884327381,11.114977596525380));
#288=VERTEX_POINT('',#287);
#289=CARTESIAN_POINT('',(7.000000000000002,4.041451884327381,8.885022403474620));
#290=DIRECTION('',(0.0,0.0,1.0));
#291=VECTOR('',#290,2.229955193050760);
#292=LINE('',#289,#291);
#293=EDGE_CURVE('',#218,#288,#292,.T.);
#294=ORIENTED_EDGE('',*,*,#293,.T.);
#295=CARTESIAN_POINT('',(7.000000000000003,-4.041451884327380,11.114977596525378));
#296=VERTEX_POINT('',#295);
#297=CARTESIAN_POINT('',(7.000000000000001,4.041451884327381,11.114977596525380));
#298=CARTESIAN_POINT('',(7.000000000000001,3.469447E-015,12.281644263192044));
#299=CARTESIAN_POINT('',(7.000000000000003,-4.041451884327380,11.114977596525378));
#307=(BOUNDED_CURVE()B_SPLINE_CURVE(2,(#297,#298,#299),.UNSPECIFIED.,.F.,.U.)B_SPLINE_CURVE_WITH_KNOTS((3,3),(0.403005346947150,1.416185836567131),.UNSPECIFIED.)CURVE()GEOMETRIC_REPRESENTATION_ITEM()RATIONAL_B_SPLINE_CURVE((1.207758812528134,1.394599751058522,1.207758812528134))REPRESENTATION_ITEM(''));
#308=EDGE_CURVE('',#288,#296,#307,.T.);
#309=ORIENTED_EDGE('',*,*,#308,.T.);
#310=CARTESIAN_POINT('',(7.000000000000003,-4.041451884327381,8.885022403474620));
#311=DIRECTION('',(0.0,0.0,1.0));
#312=VECTOR('',#311,2.229955193050758);
#313=LINE('',#310,#312);
#314=EDGE_CURVE('',#233,#296,#313,.T.);
#315=ORIENTED_EDGE('',*,*,#314,.F.);
#316=EDGE_LOOP('',(#286,#294,#309,#315));
#317=FACE_OUTER_BOUND('',#316,.T.);
#318=ADVANCED_FACE('',(#317),#285,.T.);
#319=CARTESIAN_POINT('',(4.187887E-016,8.082903768654763,0.0));
#320=DIRECTION('',(0.500000000000000,0.866025403784439,0.0));
#321=DIRECTION('',(0.0,0.0,-1.0));
#322=AXIS2_PLACEMENT_3D('',#319,#320,#321);
#323=PLANE('',#322);
#324=ORIENTED_EDGE('',*,*,#230,.T.);
#325=CARTESIAN_POINT('',(4.187887E-016,8.082903768654763,11.114977596525378));
#326=VERTEX_POINT('',#325);
#327=CARTESIAN_POINT('',(4.187887E-016,8.082903768654763,8.885022403474620));
#328=DIRECTION('',(0.0,0.0,1.0));
#329=VECTOR('',#328,2.229955193050758);
#330=LINE('',#327,#329);
#331=EDGE_CURVE('',#203,#326,#330,.T.);
#332=ORIENTED_EDGE('',*,*,#331,.T.);
#333=CARTESIAN_POINT('',(4.187887E-016,8.082903768654763,11.114977596525378));
#334=CARTESIAN_POINT('',(3.500000000000001,6.062177826491074,12.281644263192044));
#335=CARTESIAN_POINT('',(7.000000000000002,4.041451884327381,11.114977596525380));
#343=(BOUNDED_CURVE()B_SPLINE_CURVE(2,(#333,#334,#335),.UNSPECIFIED.,.F.,.U.)B_SPLINE_CURVE_WITH_KNOTS((3,3),(0.403005346947149,1.416185836567131),.UNSPECIFIED.)CURVE()GEOMETRIC_REPRESENTATION_ITEM()RATIONAL_B_SPLINE_CURVE((1.207758812528133,1.394599751058522,1.207758812528134))REPRESENTATION_ITEM(''));
#344=EDGE_CURVE('',#326,#288,#343,.T.);
#345=ORIENTED_EDGE('',*,*,#344,.T.);
#346=ORIENTED_EDGE('',*,*,#293,.F.);
#347=EDGE_LOOP('',(#324,#332,#345,#346));
#348=FACE_OUTER_BOUND('',#347,.T.);
#349=ADVANCED_FACE('',(#348),#323,.T.);
#350=CARTESIAN_POINT('',(-7.000000000000002,4.041451884327383,0.0));
#351=DIRECTION('',(-0.500000000000000,0.866025403784439,0.0));
#352=DIRECTION('',(0.0,0.0,1.0));
#353=AXIS2_PLACEMENT_3D('',#350,#351,#352);
#354=PLANE('',#353);
#355=ORIENTED_EDGE('',*,*,#215,.T.);
#356=CARTESIAN_POINT('',(-7.000000000000002,4.041451884327383,11.114977596525378));
#357=VERTEX_POINT('',#356);
#358=CARTESIAN_POINT('',(-7.000000000000002,4.041451884327383,8.885022403474620));
#359=DIRECTION('',(0.0,0.0,1.0));
#360=VECTOR('',#359,2.229955193050758);
#361=LINE('',#358,#360);
#362=EDGE_CURVE('',#186,#357,#361,.T.);
#363=ORIENTED_EDGE('',*,*,#362,.T.);
#364=CARTESIAN_POINT('',(-7.000000000000003,4.041451884327383,11.114977596525378));
#365=CARTESIAN_POINT('',(-3.499999999999999,6.062177826491075,12.281644263192044));
#366=CARTESIAN_POINT('',(4.187887E-016,8.082903768654763,11.114977596525378));
#374=(BOUNDED_CURVE()B_SPLINE_CURVE(2,(#364,#365,#366),.UNSPECIFIED.,.F.,.U.)B_SPLINE_CURVE_WITH_KNOTS((3,3),(0.403005346947150,1.416185836567132),.UNSPECIFIED.)CURVE()GEOMETRIC_REPRESENTATION_ITEM()RATIONAL_B_SPLINE_CURVE((1.207758812528133,1.394599751058521,1.207758812528133))REPRESENTATION_ITEM(''));
#375=EDGE_CURVE('',#357,#326,#374,.T.);
#376=ORIENTED_EDGE('',*,*,#375,.T.);
#377=ORIENTED_EDGE('',*,*,#331,.F.);
#378=EDGE_LOOP('',(#355,#363,#376,#377));
#379=FACE_OUTER_BOUND('',#378,.T.);
#380=ADVANCED_FACE('',(#379),#354,.T.);
#381=CARTESIAN_POINT('',(0.0,0.0,10.652894613508323));
#382=DIRECTION('',(0.0,0.0,-1.0));
#383=DIRECTION('',(0.0,1.0,0.0));
#384=AXIS2_PLACEMENT_3D('',#381,#382,#383);
#385=CONICAL_SURFACE('',#384,8.883254972553289,60.000000000000036);
#386=ORIENTED_EDGE('',*,*,#308,.F.);
#387=ORIENTED_EDGE('',*,*,#344,.F.);
#388=ORIENTED_EDGE('',*,*,#375,.F.);
#389=CARTESIAN_POINT('',(-7.000000000000002,-4.041451884327384,11.114977596525378));
#390=VERTEX_POINT('',#389);
#391=CARTESIAN_POINT('',(-7.000000000000002,-4.041451884327384,11.114977596525378));
#392=CARTESIAN_POINT('',(-7.000000000000003,-1.110223E-015,12.281644263192046));
#393=CARTESIAN_POINT('',(-7.000000000000003,4.041451884327383,11.114977596525378));
#401=(BOUNDED_CURVE()B_SPLINE_CURVE(2,(#391,#392,#393),.UNSPECIFIED.,.F.,.U.)B_SPLINE_CURVE_WITH_KNOTS((3,3),(0.403005346947149,1.416185836567131),.UNSPECIFIED.)CURVE()GEOMETRIC_REPRESENTATION_ITEM()RATIONAL_B_SPLINE_CURVE((1.207758812528133,1.394599751058521,1.207758812528133))REPRESENTATION_ITEM(''));
#402=EDGE_CURVE('',#390,#357,#401,.T.);
#403=ORIENTED_EDGE('',*,*,#402,.F.);
#404=CARTESIAN_POINT('',(2.288304E-015,-8.082903768654763,11.114977596525380));
#405=VERTEX_POINT('',#404);
#406=CARTESIAN_POINT('',(2.288304E-015,-8.082903768654763,11.114977596525380));
#407=CARTESIAN_POINT('',(-3.500000000000002,-6.062177826491074,12.281644263192044));
#408=CARTESIAN_POINT('',(-7.000000000000002,-4.041451884327384,11.114977596525378));
#416=(BOUNDED_CURVE()B_SPLINE_CURVE(2,(#406,#407,#408),.UNSPECIFIED.,.F.,.U.)B_SPLINE_CURVE_WITH_KNOTS((3,3),(0.403005346947149,1.416185836567131),.UNSPECIFIED.)CURVE()GEOMETRIC_REPRESENTATION_ITEM()RATIONAL_B_SPLINE_CURVE((1.207758812528133,1.394599751058521,1.207758812528133))REPRESENTATION_ITEM(''));
#417=EDGE_CURVE('',#405,#390,#416,.T.);
#418=ORIENTED_EDGE('',*,*,#417,.F.);
#419=CARTESIAN_POINT('',(7.000000000000002,-4.041451884327380,11.114977596525378));
#420=CARTESIAN_POINT('',(3.500000000000003,-6.062177826491069,12.281644263192044));
#421=CARTESIAN_POINT('',(2.288304E-015,-8.082903768654763,11.114977596525380));
#429=(BOUNDED_CURVE()B_SPLINE_CURVE(2,(#419,#420,#421),.UNSPECIFIED.,.F.,.U.)B_SPLINE_CURVE_WITH_KNOTS((3,3),(0.403005346947150,1.416185836567132),.UNSPECIFIED.)CURVE()GEOMETRIC_REPRESENTATION_ITEM()RATIONAL_B_SPLINE_CURVE((1.207758812528133,1.394599751058520,1.207758812528133))REPRESENTATION_ITEM(''));
#430=EDGE_CURVE('',#296,#405,#429,.T.);
#431=ORIENTED_EDGE('',*,*,#430,.F.);
#432=EDGE_LOOP('',(#386,#387,#388,#403,#418,#431));
#433=FACE_OUTER_BOUND('',#432,.T.);
#434=ORIENTED_EDGE('',*,*,#152,.F.);
#435=EDGE_LOOP('',(#434));
#436=FACE_BOUND('',#435,.T.);
#437=ADVANCED_FACE('',(#433,#436),#385,.T.);
#438=CARTESIAN_POINT('',(-7.000000000000002,-4.041451884327384,0.0));
#439=DIRECTION('',(-1.0,0.0,0.0));
#440=DIRECTION('',(0.0,0.0,1.0));
#441=AXIS2_PLACEMENT_3D('',#438,#439,#440);
#442=PLANE('',#441);
#443=ORIENTED_EDGE('',*,*,#200,.T.);
#444=CARTESIAN_POINT('',(-7.000000000000002,-4.041451884327384,8.885022403474620));
#445=DIRECTION('',(0.0,0.0,1.0));
#446=VECTOR('',#445,2.229955193050758);
#447=LINE('',#444,#446);
#448=EDGE_CURVE('',#188,#390,#447,.T.);
#449=ORIENTED_EDGE('',*,*,#448,.T.);
#450=ORIENTED_EDGE('',*,*,#402,.T.);
#451=ORIENTED_EDGE('',*,*,#362,.F.);
#452=EDGE_LOOP('',(#443,#449,#450,#451));
#453=FACE_OUTER_BOUND('',#452,.T.);
#454=ADVANCED_FACE('',(#453),#442,.T.);
#455=CARTESIAN_POINT('',(4.0,-4.898425E-016,0.0));
#456=CARTESIAN_POINT('',(4.0,-4.898425E-016,20.0));
#457=CARTESIAN_POINT('',(3.999999999999999,-4.000000000000000,0.0));
#458=CARTESIAN_POINT('',(3.999999999999999,-4.000000000000000,20.0));
#459=CARTESIAN_POINT('',(-4.898425E-016,-4.0,0.0));
#460=CARTESIAN_POINT('',(-4.898425E-016,-4.0,20.0));
#461=CARTESIAN_POINT('',(-4.000000000000000,-3.999999999999999,0.0));
#462=CARTESIAN_POINT('',(-4.000000000000000,-3.999999999999999,20.0));
#463=CARTESIAN_POINT('',(-4.0,4.898425E-016,0.0));
#464=CARTESIAN_POINT('',(-4.0,4.898425E-016,20.0));
#465=CARTESIAN_POINT('',(-3.999999999999999,4.000000000000000,0.0));
#466=CARTESIAN_POINT('',(-3.999999999999999,4.000000000000000,20.0));
#467=CARTESIAN_POINT('',(4.898425E-016,4.0,0.0));
#468=CARTESIAN_POINT('',(4.898425E-016,4.0,20.0));
#469=CARTESIAN_POINT('',(4.000000000000000,3.999999999999999,0.0));
#470=CARTESIAN_POINT('',(4.000000000000000,3.999999999999999,20.0));
#471=CARTESIAN_POINT('',(4.0,-4.898425E-016,0.0));
#472=CARTESIAN_POINT('',(4.0,-4.898425E-016,20.0));
#480=(BOUNDED_SURFACE()B_SPLINE_SURFACE(1,2,((#455,#457,#459,#461,#463,#465,#467,#469,#471),(#456,#458,#460,#462,#464,#466,#468,#470,#472)),.UNSPECIFIED.,.F.,.T.,.U.)B_SPLINE_SURFACE_WITH_KNOTS((2,2),(3,2,2,2,3),(-7.320063751999252,-2.320063751999252),(0.0,6.283185307179586,12.566370614359172,18.849555921538759,25.132741228718345),.UNSPECIFIED.)GEOMETRIC_REPRESENTATION_ITEM()RATIONAL_B_SPLINE_SURFACE(((1.0,0.707106781186548,1.0,0.707106781186548,1.0,0.707106781186548,1.0,0.707106781186548,1.0),(1.0,0.707106781186548,1.0,0.707106781186548,1.0,0.707106781186548,1.0,0.707106781186548,1.0)))REPRESENTATION_ITEM('')SURFACE());
#481=ORIENTED_EDGE('',*,*,#175,.F.);
#482=EDGE_LOOP('',(#481));
#483=FACE_OUTER_BOUND('',#482,.T.);
#484=ORIENTED_EDGE('',*,*,#107,.F.);
#485=EDGE_LOOP('',(#484));
#486=FACE_BOUND('',#485,.T.);
#487=ADVANCED_FACE('',(#483,#486),#480,.F.);
#488=CARTESIAN_POINT('',(7.000000000000003,-4.041451884327380,0.0));
#489=DIRECTION('',(0.500000000000000,-0.866025403784439,0.0));
#490=DIRECTION('',(0.0,0.0,-1.0));
#491=AXIS2_PLACEMENT_3D('',#488,#489,#490);
#492=PLANE('',#491);
#493=ORIENTED_EDGE('',*,*,#260,.T.);
#494=ORIENTED_EDGE('',*,*,#314,.T.);
#495=ORIENTED_EDGE('',*,*,#430,.T.);
#496=CARTESIAN_POINT('',(2.288304E-015,-8.082903768654763,8.885022403474620));
#497=DIRECTION('',(0.0,0.0,1.0));
#498=VECTOR('',#497,2.229955193050760);
#499=LINE('',#496,#498);
#500=EDGE_CURVE('',#248,#405,#499,.T.);
#501=ORIENTED_EDGE('',*,*,#500,.F.);
#502=EDGE_LOOP('',(#493,#494,#495,#501));
#503=FACE_OUTER_BOUND('',#502,.T.);
#504=ADVANCED_FACE('',(#503),#492,.T.);
#505=CARTESIAN_POINT('',(2.288304E-015,-8.082903768654763,0.0));
#506=DIRECTION('',(-0.500000000000000,-0.866025403784439,0.0));
#507=DIRECTION('',(0.0,0.0,-1.0));
#508=AXIS2_PLACEMENT_3D('',#505,#506,#507);
#509=PLANE('',#508);
#510=ORIENTED_EDGE('',*,*,#273,.T.);
#511=ORIENTED_EDGE('',*,*,#500,.T.);
#512=ORIENTED_EDGE('',*,*,#417,.T.);
#513=ORIENTED_EDGE('',*,*,#448,.F.);
#514=EDGE_LOOP('',(#510,#511,#512,#513));
#515=FACE_OUTER_BOUND('',#514,.T.);
#516=ADVANCED_FACE('',(#515),#509,.T.);
#517=CLOSED_SHELL('',(#71,#91,#111,#139,#159,#179,#280,#318,#349,#380,#437,#454,#487,#504,#516));
#518=MANIFOLD_SOLID_BREP('',#517);
#519=COLOUR_RGB('Metall - Messing',0.780391991138458,0.568626999855042,0.113724999129772);
#520=FILL_AREA_STYLE_COLOUR('Metall - Messing',#519);
#521=FILL_AREA_STYLE('Metall - Messing',(#520));
#522=SURFACE_STYLE_FILL_AREA(#521);
#523=SURFACE_SIDE_STYLE('Metall - Messing',(#522));
#524=SURFACE_STYLE_USAGE(.BOTH.,#523);
#525=PRESENTATION_STYLE_ASSIGNMENT((#524));
#526=STYLED_ITEM('',(#525),#518);
#527=MECHANICAL_DESIGN_GEOMETRIC_PRESENTATION_REPRESENTATION('',(#526),#36);
#528=ADVANCED_BREP_SHAPE_REPRESENTATION('ABSR',(#518),#36);
#529=SHAPE_REPRESENTATION_RELATIONSHIP('SRR','None',#528,#41);
ENDSEC;
END-ISO-10303-21;
