ISO-10303-21;
HEADER;
/****************************************************************
 * Generated by software with PDE/Lib inside                    *
 * PDElib Version 4.0, created Wed Jun 15 17:58:53 EDT 2005     *
 * International Technegroup Inc. (www.iti-oh.com)              *
 ****************************************************************/
FILE_DESCRIPTION((''),'2;1');
FILE_NAME('I:\\DATEN\\POOL\\CI\\Technische Zeichnungen\\3D Daten als STP\\Anschlussteile\\Reduzierst\S\|ck\\Reduzierstueck G1_4 auf R3_8 A260011505.stp','2006-04-26T13:57:58',('ScheitB'),(''),'Autodesk Inventor 10','Autodesk Inventor 10','');
FILE_SCHEMA(('AUTOMOTIVE_DESIGN { 1 0 10303 214 1 1 1 1 }'));
ENDSEC;
DATA;
#5=APPLICATION_CONTEXT('automotive design');
#6=APPLICATION_PROTOCOL_DEFINITION('Draft International Standard','automotive_design',1998,#5);
#7=PRODUCT_CONTEXT('None',#5,'mechanical');
#8=PRODUCT('anrds04b','anrds04b','None',(#7));
#9=PRODUCT_RELATED_PRODUCT_CATEGORY('part','description',(#8));
#10=PRODUCT_DEFINITION_FORMATION('None','None',#8);
#11=PRODUCT_DEFINITION_CONTEXT('part definition',#5,'design');
#12=PRODUCT_DEFINITION('None','None',#10,#11);
#18=(NAMED_UNIT(*)PLANE_ANGLE_UNIT()SI_UNIT($,.RADIAN.));
#19=DIMENSIONAL_EXPONENTS(0.0,0.0,0.0,0.0,0.0,0.0,0.0);
#20=PLANE_ANGLE_MEASURE_WITH_UNIT(PLANE_ANGLE_MEASURE(0.017453292500000),#18);
#24=(CONVERSION_BASED_UNIT('DEGREE',#20)NAMED_UNIT(#19)PLANE_ANGLE_UNIT());
#28=(NAMED_UNIT(*)SI_UNIT($,.STERADIAN.)SOLID_ANGLE_UNIT());
#32=(LENGTH_UNIT()NAMED_UNIT(*)SI_UNIT(.MILLI.,.METRE.));
#34=UNCERTAINTY_MEASURE_WITH_UNIT(LENGTH_MEASURE(0.010000000000000),#32,'DISTANCE_ACCURACY_VALUE','');
#36=(GEOMETRIC_REPRESENTATION_CONTEXT(3)GLOBAL_UNCERTAINTY_ASSIGNED_CONTEXT((#34))GLOBAL_UNIT_ASSIGNED_CONTEXT((#24,#28,#32))REPRESENTATION_CONTEXT('None','None'));
#37=AXIS2_PLACEMENT_3D('',#38,#39,#40);
#38=CARTESIAN_POINT('',(0.0,0.0,0.0));
#39=DIRECTION('',(0.0,0.0,1.0));
#40=DIRECTION('',(1.0,0.0,0.0));
#41=SHAPE_REPRESENTATION('',(#37),#36);
#42=PRODUCT_DEFINITION_SHAPE('','',#12);
#43=SHAPE_DEFINITION_REPRESENTATION(#42,#41);
#44=CARTESIAN_POINT('',(0.0,0.0,14.700000000000003));
#45=DIRECTION('',(0.0,0.0,1.0));
#46=DIRECTION('',(-1.0,0.0,0.0));
#47=AXIS2_PLACEMENT_3D('',#44,#45,#46);
#48=CONICAL_SURFACE('',#47,6.022499999999999,44.999999999999943);
#49=CARTESIAN_POINT('',(5.722500000000000,-7.007810E-016,14.400000000000002));
#50=VERTEX_POINT('',#49);
#51=CARTESIAN_POINT('',(0.0,0.0,14.400000000000002));
#52=DIRECTION('',(0.0,0.0,-1.0));
#53=DIRECTION('',(-1.0,0.0,0.0));
#54=AXIS2_PLACEMENT_3D('',#51,#52,#53);
#55=CIRCLE('',#54,5.722500000000000);
#56=EDGE_CURVE('',#50,#50,#55,.T.);
#57=ORIENTED_EDGE('',*,*,#56,.T.);
#58=EDGE_LOOP('',(#57));
#59=FACE_OUTER_BOUND('',#58,.T.);
#60=CARTESIAN_POINT('',(6.322500000000000,7.742574E-016,15.000000000000002));
#61=VERTEX_POINT('',#60);
#62=CARTESIAN_POINT('',(0.0,0.0,15.000000000000002));
#63=DIRECTION('',(0.0,0.0,1.0));
#64=DIRECTION('',(-1.0,0.0,0.0));
#65=AXIS2_PLACEMENT_3D('',#62,#63,#64);
#66=CIRCLE('',#65,6.322500000000000);
#67=EDGE_CURVE('',#61,#61,#66,.T.);
#68=ORIENTED_EDGE('',*,*,#67,.T.);
#69=EDGE_LOOP('',(#68));
#70=FACE_BOUND('',#69,.T.);
#71=ADVANCED_FACE('',(#59,#70),#48,.F.);
#72=CARTESIAN_POINT('',(5.722500000000000,-7.007810E-016,0.0));
#73=CARTESIAN_POINT('',(5.722500000000000,-7.007810E-016,14.400000000000000));
#74=CARTESIAN_POINT('',(5.722499999999998,-5.722500000000000,0.0));
#75=CARTESIAN_POINT('',(5.722499999999998,-5.722500000000000,14.400000000000000));
#76=CARTESIAN_POINT('',(-7.007810E-016,-5.722500000000000,0.0));
#77=CARTESIAN_POINT('',(-7.007810E-016,-5.722500000000000,14.400000000000000));
#78=CARTESIAN_POINT('',(-5.722500000000000,-5.722499999999998,0.0));
#79=CARTESIAN_POINT('',(-5.722500000000000,-5.722499999999998,14.400000000000000));
#80=CARTESIAN_POINT('',(-5.722500000000000,7.007810E-016,0.0));
#81=CARTESIAN_POINT('',(-5.722500000000000,7.007810E-016,14.400000000000000));
#82=CARTESIAN_POINT('',(-5.722499999999998,5.722500000000000,0.0));
#83=CARTESIAN_POINT('',(-5.722499999999998,5.722500000000000,14.400000000000000));
#84=CARTESIAN_POINT('',(7.007810E-016,5.722500000000000,0.0));
#85=CARTESIAN_POINT('',(7.007810E-016,5.722500000000000,14.400000000000000));
#86=CARTESIAN_POINT('',(5.722500000000000,5.722499999999998,0.0));
#87=CARTESIAN_POINT('',(5.722500000000000,5.722499999999998,14.400000000000000));
#88=CARTESIAN_POINT('',(5.722500000000000,-7.007810E-016,0.0));
#89=CARTESIAN_POINT('',(5.722500000000000,-7.007810E-016,14.400000000000000));
#97=(BOUNDED_SURFACE()B_SPLINE_SURFACE(1,2,((#72,#74,#76,#78,#80,#82,#84,#86,#88),(#73,#75,#77,#79,#81,#83,#85,#87,#89)),.UNSPECIFIED.,.F.,.T.,.U.)B_SPLINE_SURFACE_WITH_KNOTS((2,2),(3,2,2,2,3),(-5.240521945043827,-2.724139245174888),(0.0,8.988881980083797,17.977763960167593,26.966645940251386,35.955527920335186),.UNSPECIFIED.)GEOMETRIC_REPRESENTATION_ITEM()RATIONAL_B_SPLINE_SURFACE(((1.0,0.707106781186548,1.0,0.707106781186548,1.0,0.707106781186548,1.0,0.707106781186548,1.0),(1.0,0.707106781186548,1.0,0.707106781186548,1.0,0.707106781186548,1.0,0.707106781186548,1.0)))REPRESENTATION_ITEM('')SURFACE());
#98=CARTESIAN_POINT('',(-5.722500000000000,0.0,0.0));
#99=VERTEX_POINT('',#98);
#100=CARTESIAN_POINT('',(0.0,0.0,0.0));
#101=DIRECTION('',(0.0,0.0,1.0));
#102=DIRECTION('',(-1.0,0.0,0.0));
#103=AXIS2_PLACEMENT_3D('',#100,#101,#102);
#104=CIRCLE('',#103,5.722500000000000);
#105=EDGE_CURVE('',#99,#99,#104,.T.);
#106=ORIENTED_EDGE('',*,*,#105,.F.);
#107=EDGE_LOOP('',(#106));
#108=FACE_OUTER_BOUND('',#107,.T.);
#109=ORIENTED_EDGE('',*,*,#56,.F.);
#110=EDGE_LOOP('',(#109));
#111=FACE_BOUND('',#110,.T.);
#112=ADVANCED_FACE('',(#108,#111),#97,.F.);
#113=CARTESIAN_POINT('',(-6.938894E-016,5.551115E-016,15.000000000000002));
#114=DIRECTION('',(0.0,0.0,1.0));
#115=DIRECTION('',(1.0,0.0,0.0));
#116=AXIS2_PLACEMENT_3D('',#113,#114,#115);
#117=PLANE('',#116);
#118=CARTESIAN_POINT('',(-7.361215932167733,-4.249999999999999,15.0));
#119=VERTEX_POINT('',#118);
#120=CARTESIAN_POINT('',(0.0,-8.500000000000000,15.000000000000002));
#121=VERTEX_POINT('',#120);
#122=CARTESIAN_POINT('',(0.0,0.0,15.000000000000002));
#123=DIRECTION('',(0.0,0.0,1.0));
#124=DIRECTION('',(0.0,-1.0,0.0));
#125=AXIS2_PLACEMENT_3D('',#122,#123,#124);
#126=CIRCLE('',#125,8.500000000000000);
#127=EDGE_CURVE('',#119,#121,#126,.T.);
#128=ORIENTED_EDGE('',*,*,#127,.T.);
#129=CARTESIAN_POINT('',(7.361215932167731,-4.249999999999999,15.0));
#130=VERTEX_POINT('',#129);
#131=CARTESIAN_POINT('',(0.0,0.0,15.000000000000002));
#132=DIRECTION('',(0.0,0.0,1.0));
#133=DIRECTION('',(0.0,-1.0,0.0));
#134=AXIS2_PLACEMENT_3D('',#131,#132,#133);
#135=CIRCLE('',#134,8.500000000000000);
#136=EDGE_CURVE('',#121,#130,#135,.T.);
#137=ORIENTED_EDGE('',*,*,#136,.T.);
#138=CARTESIAN_POINT('',(7.361215932167731,4.250000000000003,15.0));
#139=VERTEX_POINT('',#138);
#140=CARTESIAN_POINT('',(0.0,0.0,15.000000000000002));
#141=DIRECTION('',(0.0,0.0,1.0));
#142=DIRECTION('',(0.0,-1.0,0.0));
#143=AXIS2_PLACEMENT_3D('',#140,#141,#142);
#144=CIRCLE('',#143,8.500000000000000);
#145=EDGE_CURVE('',#130,#139,#144,.T.);
#146=ORIENTED_EDGE('',*,*,#145,.T.);
#147=CARTESIAN_POINT('',(1.942890E-015,8.500000000000002,15.0));
#148=VERTEX_POINT('',#147);
#149=CARTESIAN_POINT('',(0.0,0.0,15.000000000000002));
#150=DIRECTION('',(0.0,0.0,1.0));
#151=DIRECTION('',(0.0,-1.0,0.0));
#152=AXIS2_PLACEMENT_3D('',#149,#150,#151);
#153=CIRCLE('',#152,8.500000000000000);
#154=EDGE_CURVE('',#139,#148,#153,.T.);
#155=ORIENTED_EDGE('',*,*,#154,.T.);
#156=CARTESIAN_POINT('',(-7.361215932167729,4.250000000000003,15.0));
#157=VERTEX_POINT('',#156);
#158=CARTESIAN_POINT('',(0.0,0.0,15.000000000000002));
#159=DIRECTION('',(0.0,0.0,1.0));
#160=DIRECTION('',(0.0,-1.0,0.0));
#161=AXIS2_PLACEMENT_3D('',#158,#159,#160);
#162=CIRCLE('',#161,8.500000000000000);
#163=EDGE_CURVE('',#148,#157,#162,.T.);
#164=ORIENTED_EDGE('',*,*,#163,.T.);
#165=CARTESIAN_POINT('',(0.0,0.0,15.000000000000002));
#166=DIRECTION('',(0.0,0.0,1.0));
#167=DIRECTION('',(0.0,-1.0,0.0));
#168=AXIS2_PLACEMENT_3D('',#165,#166,#167);
#169=CIRCLE('',#168,8.500000000000000);
#170=EDGE_CURVE('',#157,#119,#169,.T.);
#171=ORIENTED_EDGE('',*,*,#170,.T.);
#172=EDGE_LOOP('',(#128,#137,#146,#155,#164,#171));
#173=FACE_OUTER_BOUND('',#172,.T.);
#174=ORIENTED_EDGE('',*,*,#67,.F.);
#175=EDGE_LOOP('',(#174));
#176=FACE_BOUND('',#175,.T.);
#177=ADVANCED_FACE('',(#173,#176),#117,.T.);
#178=CARTESIAN_POINT('',(0.0,0.0,13.888719100293550));
#179=DIRECTION('',(0.0,0.0,-1.0));
#180=DIRECTION('',(0.0,-1.0,0.0));
#181=AXIS2_PLACEMENT_3D('',#178,#179,#180);
#182=CONICAL_SURFACE('',#181,10.424794979772432,60.000000000000021);
#183=CARTESIAN_POINT('',(-9.814954576223641,1.520515E-015,14.240810621445153));
#184=VERTEX_POINT('',#183);
#185=CARTESIAN_POINT('',(-9.814954576223641,1.520515E-015,14.240810621445153));
#186=CARTESIAN_POINT('',(-8.499999999998007,2.277568135668001,15.0));
#187=CARTESIAN_POINT('',(-7.361215932167729,4.250000000000003,15.0));
#195=(BOUNDED_CURVE()B_SPLINE_CURVE(2,(#185,#186,#187),.UNSPECIFIED.,.F.,.U.)B_SPLINE_CURVE_WITH_KNOTS((3,3),(0.371704857593001,0.927734827656121),.UNSPECIFIED.)CURVE()GEOMETRIC_REPRESENTATION_ITEM()RATIONAL_B_SPLINE_CURVE((1.051604419146668,1.064399503968481,1.0))REPRESENTATION_ITEM(''));
#196=EDGE_CURVE('',#184,#157,#195,.T.);
#197=ORIENTED_EDGE('',*,*,#196,.F.);
#198=CARTESIAN_POINT('',(-7.361215932167733,-4.249999999999999,15.0));
#199=CARTESIAN_POINT('',(-8.499999999998011,-2.277568135667996,15.0));
#200=CARTESIAN_POINT('',(-9.814954576223641,1.520515E-015,14.240810621445153));
#208=(BOUNDED_CURVE()B_SPLINE_CURVE(2,(#198,#199,#200),.UNSPECIFIED.,.F.,.U.)B_SPLINE_CURVE_WITH_KNOTS((3,3),(0.927734827656121,1.483764797719242),.UNSPECIFIED.)CURVE()GEOMETRIC_REPRESENTATION_ITEM()RATIONAL_B_SPLINE_CURVE((1.0,1.064399503968480,1.051604419146667))REPRESENTATION_ITEM(''));
#209=EDGE_CURVE('',#119,#184,#208,.T.);
#210=ORIENTED_EDGE('',*,*,#209,.F.);
#211=ORIENTED_EDGE('',*,*,#170,.F.);
#212=EDGE_LOOP('',(#197,#210,#211));
#213=FACE_OUTER_BOUND('',#212,.T.);
#214=ADVANCED_FACE('',(#213),#182,.T.);
#215=CARTESIAN_POINT('',(0.0,0.0,13.888719100293550));
#216=DIRECTION('',(0.0,0.0,-1.0));
#217=DIRECTION('',(0.0,-1.0,0.0));
#218=AXIS2_PLACEMENT_3D('',#215,#216,#217);
#219=CONICAL_SURFACE('',#218,10.424794979772432,60.000000000000021);
#220=CARTESIAN_POINT('',(-4.907477288111820,8.500000000000004,14.240810621445155));
#221=VERTEX_POINT('',#220);
#222=CARTESIAN_POINT('',(-4.907477288111820,8.500000000000004,14.240810621445155));
#223=CARTESIAN_POINT('',(-2.277568135660567,8.500000000000004,15.0));
#224=CARTESIAN_POINT('',(1.942890E-015,8.500000000000002,15.0));
#232=(BOUNDED_CURVE()B_SPLINE_CURVE(2,(#222,#223,#224),.UNSPECIFIED.,.F.,.U.)B_SPLINE_CURVE_WITH_KNOTS((3,3),(0.371704857593001,0.927734827656121),.UNSPECIFIED.)CURVE()GEOMETRIC_REPRESENTATION_ITEM()RATIONAL_B_SPLINE_CURVE((1.051604419146673,1.064399503968488,1.0))REPRESENTATION_ITEM(''));
#233=EDGE_CURVE('',#221,#148,#232,.T.);
#234=ORIENTED_EDGE('',*,*,#233,.F.);
#235=CARTESIAN_POINT('',(-7.361215932167729,4.250000000000003,15.0));
#236=CARTESIAN_POINT('',(-6.222431864337448,6.222431864332013,15.0));
#237=CARTESIAN_POINT('',(-4.907477288111820,8.500000000000004,14.240810621445155));
#245=(BOUNDED_CURVE()B_SPLINE_CURVE(2,(#235,#236,#237),.UNSPECIFIED.,.F.,.U.)B_SPLINE_CURVE_WITH_KNOTS((3,3),(0.927734827656121,1.483764797719243),.UNSPECIFIED.)CURVE()GEOMETRIC_REPRESENTATION_ITEM()RATIONAL_B_SPLINE_CURVE((1.0,1.064399503968486,1.051604419146672))REPRESENTATION_ITEM(''));
#246=EDGE_CURVE('',#157,#221,#245,.T.);
#247=ORIENTED_EDGE('',*,*,#246,.F.);
#248=ORIENTED_EDGE('',*,*,#163,.F.);
#249=EDGE_LOOP('',(#234,#247,#248));
#250=FACE_OUTER_BOUND('',#249,.T.);
#251=ADVANCED_FACE('',(#250),#219,.T.);
#252=CARTESIAN_POINT('',(0.0,0.0,13.888719100293550));
#253=DIRECTION('',(0.0,0.0,-1.0));
#254=DIRECTION('',(0.0,-1.0,0.0));
#255=AXIS2_PLACEMENT_3D('',#252,#253,#254);
#256=CONICAL_SURFACE('',#255,10.424794979772432,60.000000000000021);
#257=CARTESIAN_POINT('',(4.907477288111820,8.500000000000000,14.240810621445155));
#258=VERTEX_POINT('',#257);
#259=CARTESIAN_POINT('',(4.907477288111820,8.500000000000000,14.240810621445155));
#260=CARTESIAN_POINT('',(6.222431864337450,6.222431864332011,15.000000000000002));
#261=CARTESIAN_POINT('',(7.361215932167731,4.250000000000003,15.0));
#269=(BOUNDED_CURVE()B_SPLINE_CURVE(2,(#259,#260,#261),.UNSPECIFIED.,.F.,.U.)B_SPLINE_CURVE_WITH_KNOTS((3,3),(0.371704857593001,0.927734827656121),.UNSPECIFIED.)CURVE()GEOMETRIC_REPRESENTATION_ITEM()RATIONAL_B_SPLINE_CURVE((1.051604419146672,1.064399503968485,1.0))REPRESENTATION_ITEM(''));
#270=EDGE_CURVE('',#258,#139,#269,.T.);
#271=ORIENTED_EDGE('',*,*,#270,.F.);
#272=CARTESIAN_POINT('',(1.942890E-015,8.500000000000002,15.0));
#273=CARTESIAN_POINT('',(2.277568135660559,8.500000000000002,15.0));
#274=CARTESIAN_POINT('',(4.907477288111820,8.500000000000000,14.240810621445155));
#282=(BOUNDED_CURVE()B_SPLINE_CURVE(2,(#272,#273,#274),.UNSPECIFIED.,.F.,.U.)B_SPLINE_CURVE_WITH_KNOTS((3,3),(0.927734827656121,1.483764797719241),.UNSPECIFIED.)CURVE()GEOMETRIC_REPRESENTATION_ITEM()RATIONAL_B_SPLINE_CURVE((1.0,1.064399503968478,1.051604419146666))REPRESENTATION_ITEM(''));
#283=EDGE_CURVE('',#148,#258,#282,.T.);
#284=ORIENTED_EDGE('',*,*,#283,.F.);
#285=ORIENTED_EDGE('',*,*,#154,.F.);
#286=EDGE_LOOP('',(#271,#284,#285));
#287=FACE_OUTER_BOUND('',#286,.T.);
#288=ADVANCED_FACE('',(#287),#256,.T.);
#289=CARTESIAN_POINT('',(0.0,0.0,13.888719100293550));
#290=DIRECTION('',(0.0,0.0,-1.0));
#291=DIRECTION('',(0.0,-1.0,0.0));
#292=AXIS2_PLACEMENT_3D('',#289,#290,#291);
#293=CONICAL_SURFACE('',#292,10.424794979772432,60.000000000000021);
#294=CARTESIAN_POINT('',(9.814954576223640,2.016062E-015,14.240810621445155));
#295=VERTEX_POINT('',#294);
#296=CARTESIAN_POINT('',(7.361215932167731,4.250000000000003,15.0));
#297=CARTESIAN_POINT('',(8.499999999998011,2.277568135667995,15.0));
#298=CARTESIAN_POINT('',(9.814954576223640,2.016062E-015,14.240810621445155));
#306=(BOUNDED_CURVE()B_SPLINE_CURVE(2,(#296,#297,#298),.UNSPECIFIED.,.F.,.U.)B_SPLINE_CURVE_WITH_KNOTS((3,3),(0.927734827656121,1.483764797719243),.UNSPECIFIED.)CURVE()GEOMETRIC_REPRESENTATION_ITEM()RATIONAL_B_SPLINE_CURVE((1.0,1.064399503968484,1.051604419146671))REPRESENTATION_ITEM(''));
#307=EDGE_CURVE('',#139,#295,#306,.T.);
#308=ORIENTED_EDGE('',*,*,#307,.F.);
#309=ORIENTED_EDGE('',*,*,#145,.F.);
#310=CARTESIAN_POINT('',(9.814954576223640,2.016062E-015,14.240810621445155));
#311=CARTESIAN_POINT('',(8.499999999998011,-2.277568135667990,15.0));
#312=CARTESIAN_POINT('',(7.361215932167731,-4.249999999999999,15.0));
#320=(BOUNDED_CURVE()B_SPLINE_CURVE(2,(#310,#311,#312),.UNSPECIFIED.,.F.,.U.)B_SPLINE_CURVE_WITH_KNOTS((3,3),(0.371704857593001,0.927734827656122),.UNSPECIFIED.)CURVE()GEOMETRIC_REPRESENTATION_ITEM()RATIONAL_B_SPLINE_CURVE((1.051604419146670,1.064399503968484,1.0))REPRESENTATION_ITEM(''));
#321=EDGE_CURVE('',#295,#130,#320,.T.);
#322=ORIENTED_EDGE('',*,*,#321,.F.);
#323=EDGE_LOOP('',(#308,#309,#322));
#324=FACE_OUTER_BOUND('',#323,.T.);
#325=ADVANCED_FACE('',(#324),#293,.T.);
#326=CARTESIAN_POINT('',(0.0,0.0,13.888719100293550));
#327=DIRECTION('',(0.0,0.0,-1.0));
#328=DIRECTION('',(0.0,-1.0,0.0));
#329=AXIS2_PLACEMENT_3D('',#326,#327,#328);
#330=CONICAL_SURFACE('',#329,10.424794979772432,60.000000000000021);
#331=CARTESIAN_POINT('',(4.907477288111823,-8.499999999999998,14.240810621445155));
#332=VERTEX_POINT('',#331);
#333=CARTESIAN_POINT('',(7.361215932167731,-4.249999999999999,15.0));
#334=CARTESIAN_POINT('',(6.222431864337452,-6.222431864332005,15.0));
#335=CARTESIAN_POINT('',(4.907477288111823,-8.499999999999998,14.240810621445155));
#343=(BOUNDED_CURVE()B_SPLINE_CURVE(2,(#333,#334,#335),.UNSPECIFIED.,.F.,.U.)B_SPLINE_CURVE_WITH_KNOTS((3,3),(0.927734827656122,1.483764797719242),.UNSPECIFIED.)CURVE()GEOMETRIC_REPRESENTATION_ITEM()RATIONAL_B_SPLINE_CURVE((1.0,1.064399503968481,1.051604419146668))REPRESENTATION_ITEM(''));
#344=EDGE_CURVE('',#130,#332,#343,.T.);
#345=ORIENTED_EDGE('',*,*,#344,.F.);
#346=ORIENTED_EDGE('',*,*,#136,.F.);
#347=CARTESIAN_POINT('',(4.907477288111823,-8.499999999999998,14.240810621445155));
#348=CARTESIAN_POINT('',(2.277568135660574,-8.500000000000000,15.0));
#349=CARTESIAN_POINT('',(0.0,-8.500000000000000,15.000000000000002));
#357=(BOUNDED_CURVE()B_SPLINE_CURVE(2,(#347,#348,#349),.UNSPECIFIED.,.F.,.U.)B_SPLINE_CURVE_WITH_KNOTS((3,3),(0.371704857593001,0.927734827656122),.UNSPECIFIED.)CURVE()GEOMETRIC_REPRESENTATION_ITEM()RATIONAL_B_SPLINE_CURVE((1.051604419146674,1.064399503968489,1.0))REPRESENTATION_ITEM(''));
#358=EDGE_CURVE('',#332,#121,#357,.T.);
#359=ORIENTED_EDGE('',*,*,#358,.F.);
#360=EDGE_LOOP('',(#345,#346,#359));
#361=FACE_OUTER_BOUND('',#360,.T.);
#362=ADVANCED_FACE('',(#361),#330,.T.);
#363=CARTESIAN_POINT('',(0.0,0.0,13.888719100293550));
#364=DIRECTION('',(0.0,0.0,-1.0));
#365=DIRECTION('',(0.0,-1.0,0.0));
#366=AXIS2_PLACEMENT_3D('',#363,#364,#365);
#367=CONICAL_SURFACE('',#366,10.424794979772432,60.000000000000021);
#368=CARTESIAN_POINT('',(-4.907477288111823,-8.500000000000000,14.240810621445153));
#369=VERTEX_POINT('',#368);
#370=CARTESIAN_POINT('',(0.0,-8.500000000000000,15.000000000000002));
#371=CARTESIAN_POINT('',(-2.277568135660563,-8.500000000000000,15.000000000000002));
#372=CARTESIAN_POINT('',(-4.907477288111823,-8.500000000000000,14.240810621445153));
#380=(BOUNDED_CURVE()B_SPLINE_CURVE(2,(#370,#371,#372),.UNSPECIFIED.,.F.,.U.)B_SPLINE_CURVE_WITH_KNOTS((3,3),(0.927734827656122,1.483764797719243),.UNSPECIFIED.)CURVE()GEOMETRIC_REPRESENTATION_ITEM()RATIONAL_B_SPLINE_CURVE((1.0,1.064399503968485,1.051604419146671))REPRESENTATION_ITEM(''));
#381=EDGE_CURVE('',#121,#369,#380,.T.);
#382=ORIENTED_EDGE('',*,*,#381,.F.);
#383=ORIENTED_EDGE('',*,*,#127,.F.);
#384=CARTESIAN_POINT('',(-4.907477288111823,-8.500000000000000,14.240810621445153));
#385=CARTESIAN_POINT('',(-6.222431864337455,-6.222431864332004,15.0));
#386=CARTESIAN_POINT('',(-7.361215932167733,-4.249999999999999,15.0));
#394=(BOUNDED_CURVE()B_SPLINE_CURVE(2,(#384,#385,#386),.UNSPECIFIED.,.F.,.U.)B_SPLINE_CURVE_WITH_KNOTS((3,3),(0.371704857593001,0.927734827656121),.UNSPECIFIED.)CURVE()GEOMETRIC_REPRESENTATION_ITEM()RATIONAL_B_SPLINE_CURVE((1.051604419146668,1.064399503968481,1.0))REPRESENTATION_ITEM(''));
#395=EDGE_CURVE('',#369,#119,#394,.T.);
#396=ORIENTED_EDGE('',*,*,#395,.F.);
#397=EDGE_LOOP('',(#382,#383,#396));
#398=FACE_OUTER_BOUND('',#397,.T.);
#399=ADVANCED_FACE('',(#398),#367,.T.);
#400=CARTESIAN_POINT('',(4.907477288111820,8.500000000000000,10.0));
#401=DIRECTION('',(0.866025403784439,0.500000000000000,0.0));
#402=DIRECTION('',(0.0,0.0,-1.0));
#403=AXIS2_PLACEMENT_3D('',#400,#401,#402);
#404=PLANE('',#403);
#405=ORIENTED_EDGE('',*,*,#270,.T.);
#406=ORIENTED_EDGE('',*,*,#307,.T.);
#407=CARTESIAN_POINT('',(9.814954576223640,2.016062E-015,10.0));
#408=VERTEX_POINT('',#407);
#409=CARTESIAN_POINT('',(9.814954576223640,2.016062E-015,10.0));
#410=DIRECTION('',(0.0,0.0,1.0));
#411=VECTOR('',#410,4.240810621445155);
#412=LINE('',#409,#411);
#413=EDGE_CURVE('',#408,#295,#412,.T.);
#414=ORIENTED_EDGE('',*,*,#413,.F.);
#415=CARTESIAN_POINT('',(4.907477288111820,8.500000000000000,10.0));
#416=VERTEX_POINT('',#415);
#417=CARTESIAN_POINT('',(4.907477288111820,8.500000000000000,10.0));
#418=DIRECTION('',(0.500000000000000,-0.866025403784438,0.0));
#419=VECTOR('',#418,9.814954576223638);
#420=LINE('',#417,#419);
#421=EDGE_CURVE('',#416,#408,#420,.T.);
#422=ORIENTED_EDGE('',*,*,#421,.F.);
#423=CARTESIAN_POINT('',(4.907477288111820,8.500000000000000,10.0));
#424=DIRECTION('',(0.0,0.0,1.0));
#425=VECTOR('',#424,4.240810621445155);
#426=LINE('',#423,#425);
#427=EDGE_CURVE('',#416,#258,#426,.T.);
#428=ORIENTED_EDGE('',*,*,#427,.T.);
#429=EDGE_LOOP('',(#405,#406,#414,#422,#428));
#430=FACE_OUTER_BOUND('',#429,.T.);
#431=ADVANCED_FACE('',(#430),#404,.T.);
#432=CARTESIAN_POINT('',(9.814954576223640,2.016062E-015,10.0));
#433=DIRECTION('',(0.866025403784439,-0.500000000000000,0.0));
#434=DIRECTION('',(0.0,0.0,-1.0));
#435=AXIS2_PLACEMENT_3D('',#432,#433,#434);
#436=PLANE('',#435);
#437=ORIENTED_EDGE('',*,*,#321,.T.);
#438=ORIENTED_EDGE('',*,*,#344,.T.);
#439=CARTESIAN_POINT('',(4.907477288111823,-8.499999999999998,10.0));
#440=VERTEX_POINT('',#439);
#441=CARTESIAN_POINT('',(4.907477288111823,-8.499999999999998,10.0));
#442=DIRECTION('',(0.0,0.0,1.0));
#443=VECTOR('',#442,4.240810621445155);
#444=LINE('',#441,#443);
#445=EDGE_CURVE('',#440,#332,#444,.T.);
#446=ORIENTED_EDGE('',*,*,#445,.F.);
#447=CARTESIAN_POINT('',(9.814954576223640,2.016062E-015,10.0));
#448=DIRECTION('',(-0.500000000000000,-0.866025403784439,0.0));
#449=VECTOR('',#448,9.814954576223638);
#450=LINE('',#447,#449);
#451=EDGE_CURVE('',#408,#440,#450,.T.);
#452=ORIENTED_EDGE('',*,*,#451,.F.);
#453=ORIENTED_EDGE('',*,*,#413,.T.);
#454=EDGE_LOOP('',(#437,#438,#446,#452,#453));
#455=FACE_OUTER_BOUND('',#454,.T.);
#456=ADVANCED_FACE('',(#455),#436,.T.);
#457=CARTESIAN_POINT('',(-7.493045E-025,-8.500000000000000,10.0));
#458=DIRECTION('',(0.0,-1.0,0.0));
#459=DIRECTION('',(0.0,0.0,-1.0));
#460=AXIS2_PLACEMENT_3D('',#457,#458,#459);
#461=PLANE('',#460);
#462=ORIENTED_EDGE('',*,*,#358,.T.);
#463=ORIENTED_EDGE('',*,*,#381,.T.);
#464=CARTESIAN_POINT('',(-4.907477288111823,-8.500000000000000,10.0));
#465=VERTEX_POINT('',#464);
#466=CARTESIAN_POINT('',(-4.907477288111823,-8.500000000000000,10.0));
#467=DIRECTION('',(0.0,0.0,1.0));
#468=VECTOR('',#467,4.240810621445153);
#469=LINE('',#466,#468);
#470=EDGE_CURVE('',#465,#369,#469,.T.);
#471=ORIENTED_EDGE('',*,*,#470,.F.);
#472=CARTESIAN_POINT('',(4.907477288111823,-8.499999999999998,10.0));
#473=DIRECTION('',(-1.0,0.0,0.0));
#474=VECTOR('',#473,9.814954576223645);
#475=LINE('',#472,#474);
#476=EDGE_CURVE('',#440,#465,#475,.T.);
#477=ORIENTED_EDGE('',*,*,#476,.F.);
#478=ORIENTED_EDGE('',*,*,#445,.T.);
#479=EDGE_LOOP('',(#462,#463,#471,#477,#478));
#480=FACE_OUTER_BOUND('',#479,.T.);
#481=ADVANCED_FACE('',(#480),#461,.T.);
#482=CARTESIAN_POINT('',(0.0,0.0,0.500000000000000));
#483=DIRECTION('',(0.0,0.0,1.0));
#484=DIRECTION('',(-1.0,0.0,0.0));
#485=AXIS2_PLACEMENT_3D('',#482,#483,#484);
#486=CONICAL_SURFACE('',#485,7.831000000000000,44.999999999999979);
#487=CARTESIAN_POINT('',(8.331000000000000,-1.020220E-015,1.0));
#488=VERTEX_POINT('',#487);
#489=CARTESIAN_POINT('',(0.0,0.0,1.0));
#490=DIRECTION('',(0.0,0.0,-1.0));
#491=DIRECTION('',(-1.0,0.0,0.0));
#492=AXIS2_PLACEMENT_3D('',#489,#490,#491);
#493=CIRCLE('',#492,8.331000000000000);
#494=EDGE_CURVE('',#488,#488,#493,.T.);
#495=ORIENTED_EDGE('',*,*,#494,.T.);
#496=EDGE_LOOP('',(#495));
#497=FACE_OUTER_BOUND('',#496,.T.);
#498=CARTESIAN_POINT('',(7.331000000000000,8.977589E-016,0.0));
#499=VERTEX_POINT('',#498);
#500=CARTESIAN_POINT('',(0.0,0.0,0.0));
#501=DIRECTION('',(0.0,0.0,1.0));
#502=DIRECTION('',(-1.0,0.0,0.0));
#503=AXIS2_PLACEMENT_3D('',#500,#501,#502);
#504=CIRCLE('',#503,7.331000000000000);
#505=EDGE_CURVE('',#499,#499,#504,.T.);
#506=ORIENTED_EDGE('',*,*,#505,.T.);
#507=EDGE_LOOP('',(#506));
#508=FACE_BOUND('',#507,.T.);
#509=ADVANCED_FACE('',(#497,#508),#486,.T.);
#510=CARTESIAN_POINT('',(0.0,0.0,0.0));
#511=DIRECTION('',(0.0,0.0,1.0));
#512=DIRECTION('',(-1.0,0.0,0.0));
#513=AXIS2_PLACEMENT_3D('',#510,#511,#512);
#514=CYLINDRICAL_SURFACE('',#513,8.331000000000000);
#515=CARTESIAN_POINT('',(8.331000000000000,1.020220E-015,10.0));
#516=VERTEX_POINT('',#515);
#517=CARTESIAN_POINT('',(0.0,0.0,10.0));
#518=DIRECTION('',(0.0,0.0,-1.0));
#519=DIRECTION('',(-1.0,0.0,0.0));
#520=AXIS2_PLACEMENT_3D('',#517,#518,#519);
#521=CIRCLE('',#520,8.331000000000000);
#522=EDGE_CURVE('',#516,#516,#521,.T.);
#523=ORIENTED_EDGE('',*,*,#522,.T.);
#524=EDGE_LOOP('',(#523));
#525=FACE_OUTER_BOUND('',#524,.T.);
#526=ORIENTED_EDGE('',*,*,#494,.F.);
#527=EDGE_LOOP('',(#526));
#528=FACE_BOUND('',#527,.T.);
#529=ADVANCED_FACE('',(#525,#528),#514,.T.);
#530=CARTESIAN_POINT('',(0.0,0.0,0.0));
#531=DIRECTION('',(0.0,0.0,-1.0));
#532=DIRECTION('',(-1.0,0.0,0.0));
#533=AXIS2_PLACEMENT_3D('',#530,#531,#532);
#534=PLANE('',#533);
#535=ORIENTED_EDGE('',*,*,#505,.F.);
#536=EDGE_LOOP('',(#535));
#537=FACE_OUTER_BOUND('',#536,.T.);
#538=ORIENTED_EDGE('',*,*,#105,.T.);
#539=EDGE_LOOP('',(#538));
#540=FACE_BOUND('',#539,.T.);
#541=ADVANCED_FACE('',(#537,#540),#534,.T.);
#542=CARTESIAN_POINT('',(-1.249001E-015,6.938894E-016,10.000000000000002));
#543=DIRECTION('',(0.0,0.0,1.0));
#544=DIRECTION('',(1.0,0.0,0.0));
#545=AXIS2_PLACEMENT_3D('',#542,#543,#544);
#546=PLANE('',#545);
#547=ORIENTED_EDGE('',*,*,#476,.T.);
#548=CARTESIAN_POINT('',(-9.814954576223641,1.520515E-015,10.0));
#549=VERTEX_POINT('',#548);
#550=CARTESIAN_POINT('',(-4.907477288111823,-8.500000000000000,10.0));
#551=DIRECTION('',(-0.500000000000000,0.866025403784439,0.0));
#552=VECTOR('',#551,9.814954576223640);
#553=LINE('',#550,#552);
#554=EDGE_CURVE('',#465,#549,#553,.T.);
#555=ORIENTED_EDGE('',*,*,#554,.T.);
#556=CARTESIAN_POINT('',(-4.907477288111820,8.500000000000004,10.0));
#557=VERTEX_POINT('',#556);
#558=CARTESIAN_POINT('',(-9.814954576223641,1.520515E-015,10.0));
#559=DIRECTION('',(0.500000000000000,0.866025403784438,0.0));
#560=VECTOR('',#559,9.814954576223641);
#561=LINE('',#558,#560);
#562=EDGE_CURVE('',#549,#557,#561,.T.);
#563=ORIENTED_EDGE('',*,*,#562,.T.);
#564=CARTESIAN_POINT('',(-4.907477288111820,8.500000000000004,10.0));
#565=DIRECTION('',(1.0,0.0,0.0));
#566=VECTOR('',#565,9.814954576223640);
#567=LINE('',#564,#566);
#568=EDGE_CURVE('',#557,#416,#567,.T.);
#569=ORIENTED_EDGE('',*,*,#568,.T.);
#570=ORIENTED_EDGE('',*,*,#421,.T.);
#571=ORIENTED_EDGE('',*,*,#451,.T.);
#572=EDGE_LOOP('',(#547,#555,#563,#569,#570,#571));
#573=FACE_OUTER_BOUND('',#572,.T.);
#574=ORIENTED_EDGE('',*,*,#522,.F.);
#575=EDGE_LOOP('',(#574));
#576=FACE_BOUND('',#575,.T.);
#577=ADVANCED_FACE('',(#573,#576),#546,.F.);
#578=CARTESIAN_POINT('',(-4.907477288111823,-8.500000000000000,10.0));
#579=DIRECTION('',(-0.866025403784439,-0.500000000000000,0.0));
#580=DIRECTION('',(0.0,0.0,1.0));
#581=AXIS2_PLACEMENT_3D('',#578,#579,#580);
#582=PLANE('',#581);
#583=ORIENTED_EDGE('',*,*,#209,.T.);
#584=CARTESIAN_POINT('',(-9.814954576223641,1.520515E-015,10.0));
#585=DIRECTION('',(0.0,0.0,1.0));
#586=VECTOR('',#585,4.240810621445153);
#587=LINE('',#584,#586);
#588=EDGE_CURVE('',#549,#184,#587,.T.);
#589=ORIENTED_EDGE('',*,*,#588,.F.);
#590=ORIENTED_EDGE('',*,*,#554,.F.);
#591=ORIENTED_EDGE('',*,*,#470,.T.);
#592=ORIENTED_EDGE('',*,*,#395,.T.);
#593=EDGE_LOOP('',(#583,#589,#590,#591,#592));
#594=FACE_OUTER_BOUND('',#593,.T.);
#595=ADVANCED_FACE('',(#594),#582,.T.);
#596=CARTESIAN_POINT('',(-9.814954576223641,1.520515E-015,10.0));
#597=DIRECTION('',(-0.866025403784439,0.500000000000000,0.0));
#598=DIRECTION('',(0.0,0.0,1.0));
#599=AXIS2_PLACEMENT_3D('',#596,#597,#598);
#600=PLANE('',#599);
#601=ORIENTED_EDGE('',*,*,#246,.T.);
#602=CARTESIAN_POINT('',(-4.907477288111820,8.500000000000004,10.0));
#603=DIRECTION('',(0.0,0.0,1.0));
#604=VECTOR('',#603,4.240810621445155);
#605=LINE('',#602,#604);
#606=EDGE_CURVE('',#557,#221,#605,.T.);
#607=ORIENTED_EDGE('',*,*,#606,.F.);
#608=ORIENTED_EDGE('',*,*,#562,.F.);
#609=ORIENTED_EDGE('',*,*,#588,.T.);
#610=ORIENTED_EDGE('',*,*,#196,.T.);
#611=EDGE_LOOP('',(#601,#607,#608,#609,#610));
#612=FACE_OUTER_BOUND('',#611,.T.);
#613=ADVANCED_FACE('',(#612),#600,.T.);
#614=CARTESIAN_POINT('',(-4.907477288111820,8.500000000000004,10.0));
#615=DIRECTION('',(0.0,1.0,0.0));
#616=DIRECTION('',(0.0,0.0,1.0));
#617=AXIS2_PLACEMENT_3D('',#614,#615,#616);
#618=PLANE('',#617);
#619=ORIENTED_EDGE('',*,*,#283,.T.);
#620=ORIENTED_EDGE('',*,*,#427,.F.);
#621=ORIENTED_EDGE('',*,*,#568,.F.);
#622=ORIENTED_EDGE('',*,*,#606,.T.);
#623=ORIENTED_EDGE('',*,*,#233,.T.);
#624=EDGE_LOOP('',(#619,#620,#621,#622,#623));
#625=FACE_OUTER_BOUND('',#624,.T.);
#626=ADVANCED_FACE('',(#625),#618,.T.);
#627=CLOSED_SHELL('',(#71,#112,#177,#214,#251,#288,#325,#362,#399,#431,#456,#481,#509,#529,#541,#577,#595,#613,#626));
#628=MANIFOLD_SOLID_BREP('',#627);
#629=COLOUR_RGB('Metall - Messing',0.780391991138458,0.568626999855042,0.113724999129772);
#630=FILL_AREA_STYLE_COLOUR('Metall - Messing',#629);
#631=FILL_AREA_STYLE('Metall - Messing',(#630));
#632=SURFACE_STYLE_FILL_AREA(#631);
#633=SURFACE_SIDE_STYLE('Metall - Messing',(#632));
#634=SURFACE_STYLE_USAGE(.BOTH.,#633);
#635=PRESENTATION_STYLE_ASSIGNMENT((#634));
#636=STYLED_ITEM('',(#635),#628);
#637=MECHANICAL_DESIGN_GEOMETRIC_PRESENTATION_REPRESENTATION('',(#636),#36);
#638=ADVANCED_BREP_SHAPE_REPRESENTATION('ABSR',(#628),#36);
#639=SHAPE_REPRESENTATION_RELATIONSHIP('SRR','None',#638,#41);
ENDSEC;
END-ISO-10303-21;
