ISO-10303-21;
HEADER;
/****************************************************************
 * Generated by software with PDE/Lib inside                    *
 * PDElib Version 4.0, created Wed Jun 15 17:58:53 EDT 2005     *
 * International Technegroup Inc. (www.iti-oh.com)              *
 ****************************************************************/
FILE_DESCRIPTION((''),'2;1');
FILE_NAME('I:\\DATEN\\POOL\\CI\\Technische Zeichnungen\\STP\\Anschlussteile\\Montageblech_110x70_A653.stp','2006-01-05T10:05:45',('ScheitB'),(''),'Autodesk Inventor 10','Autodesk Inventor 10','');
FILE_SCHEMA(('AUTOMOTIVE_DESIGN { 1 0 10303 214 1 1 1 1 }'));
ENDSEC;
DATA;
#5=APPLICATION_CONTEXT('automotive design');
#6=APPLICATION_PROTOCOL_DEFINITION('Draft International Standard','automotive_design',1998,#5);
#7=PRODUCT_CONTEXT('None',#5,'mechanical');
#8=PRODUCT('anmbl01d','anmbl01d','None',(#7));
#9=PRODUCT_RELATED_PRODUCT_CATEGORY('part','description',(#8));
#10=PRODUCT_DEFINITION_FORMATION('None','None',#8);
#11=PRODUCT_DEFINITION_CONTEXT('part definition',#5,'design');
#12=PRODUCT_DEFINITION('None','None',#10,#11);
#18=(NAMED_UNIT(*)PLANE_ANGLE_UNIT()SI_UNIT($,.RADIAN.));
#19=DIMENSIONAL_EXPONENTS(0.0,0.0,0.0,0.0,0.0,0.0,0.0);
#20=PLANE_ANGLE_MEASURE_WITH_UNIT(PLANE_ANGLE_MEASURE(0.017453292500000),#18);
#24=(CONVERSION_BASED_UNIT('DEGREE',#20)NAMED_UNIT(#19)PLANE_ANGLE_UNIT());
#28=(NAMED_UNIT(*)SI_UNIT($,.STERADIAN.)SOLID_ANGLE_UNIT());
#32=(LENGTH_UNIT()NAMED_UNIT(*)SI_UNIT(.MILLI.,.METRE.));
#34=UNCERTAINTY_MEASURE_WITH_UNIT(LENGTH_MEASURE(0.010000000000000),#32,'DISTANCE_ACCURACY_VALUE','');
#36=(GEOMETRIC_REPRESENTATION_CONTEXT(3)GLOBAL_UNCERTAINTY_ASSIGNED_CONTEXT((#34))GLOBAL_UNIT_ASSIGNED_CONTEXT((#24,#28,#32))REPRESENTATION_CONTEXT('None','None'));
#37=AXIS2_PLACEMENT_3D('',#38,#39,#40);
#38=CARTESIAN_POINT('',(0.0,0.0,0.0));
#39=DIRECTION('',(0.0,0.0,1.0));
#40=DIRECTION('',(1.0,0.0,0.0));
#41=SHAPE_REPRESENTATION('',(#37),#36);
#42=PRODUCT_DEFINITION_SHAPE('','',#12);
#43=SHAPE_DEFINITION_REPRESENTATION(#42,#41);
#44=CARTESIAN_POINT('',(-104.999999999999970,-65.000000000000014,0.0));
#45=DIRECTION('',(0.0,0.0,1.0));
#46=DIRECTION('',(-0.707106781186547,-0.707106781186547,0.0));
#47=AXIS2_PLACEMENT_3D('',#44,#45,#46);
#48=CYLINDRICAL_SURFACE('',#47,5.0);
#49=CARTESIAN_POINT('',(-104.999999999999970,-70.000000000000014,2.500000000000000));
#50=VERTEX_POINT('',#49);
#51=CARTESIAN_POINT('',(-109.999999999999970,-65.000000000000014,2.500000000000000));
#52=VERTEX_POINT('',#51);
#53=CARTESIAN_POINT('',(-104.999999999999970,-65.000000000000014,2.500000000000000));
#54=DIRECTION('',(0.0,0.0,-1.000000000000000));
#55=DIRECTION('',(-0.707106781186547,-0.707106781186547,0.0));
#56=AXIS2_PLACEMENT_3D('',#53,#54,#55);
#57=CIRCLE('',#56,4.999999999999999);
#58=EDGE_CURVE('',#50,#52,#57,.T.);
#59=ORIENTED_EDGE('',*,*,#58,.T.);
#60=CARTESIAN_POINT('',(-109.999999999999970,-65.000000000000014,0.0));
#61=VERTEX_POINT('',#60);
#62=CARTESIAN_POINT('',(-109.999999999999970,-65.000000000000014,2.500000000000000));
#63=DIRECTION('',(0.0,0.0,-1.0));
#64=VECTOR('',#63,2.500000000000000);
#65=LINE('',#62,#64);
#66=EDGE_CURVE('',#52,#61,#65,.T.);
#67=ORIENTED_EDGE('',*,*,#66,.T.);
#68=CARTESIAN_POINT('',(-104.999999999999970,-70.000000000000014,0.0));
#69=VERTEX_POINT('',#68);
#70=CARTESIAN_POINT('',(-104.999999999999970,-65.000000000000014,0.0));
#71=DIRECTION('',(0.0,0.0,1.000000000000000));
#72=DIRECTION('',(-0.707106781186547,-0.707106781186547,0.0));
#73=AXIS2_PLACEMENT_3D('',#70,#71,#72);
#74=CIRCLE('',#73,4.999999999999999);
#75=EDGE_CURVE('',#61,#69,#74,.T.);
#76=ORIENTED_EDGE('',*,*,#75,.T.);
#77=CARTESIAN_POINT('',(-104.999999999999970,-70.000000000000014,0.0));
#78=DIRECTION('',(0.0,0.0,1.0));
#79=VECTOR('',#78,2.500000000000000);
#80=LINE('',#77,#79);
#81=EDGE_CURVE('',#69,#50,#80,.T.);
#82=ORIENTED_EDGE('',*,*,#81,.T.);
#83=EDGE_LOOP('',(#59,#67,#76,#82));
#84=FACE_OUTER_BOUND('',#83,.T.);
#85=ADVANCED_FACE('',(#84),#48,.T.);
#86=CARTESIAN_POINT('',(3.000286E-014,-70.0,0.0));
#87=DIRECTION('',(0.0,-1.0,0.0));
#88=DIRECTION('',(0.0,0.0,-1.0));
#89=AXIS2_PLACEMENT_3D('',#86,#87,#88);
#90=PLANE('',#89);
#91=ORIENTED_EDGE('',*,*,#81,.F.);
#92=CARTESIAN_POINT('',(-4.999999999999965,-70.0,0.0));
#93=VERTEX_POINT('',#92);
#94=CARTESIAN_POINT('',(-104.999999999999970,-70.000000000000014,0.0));
#95=DIRECTION('',(1.0,0.0,0.0));
#96=VECTOR('',#95,100.0);
#97=LINE('',#94,#96);
#98=EDGE_CURVE('',#69,#93,#97,.T.);
#99=ORIENTED_EDGE('',*,*,#98,.T.);
#100=CARTESIAN_POINT('',(-4.999999999999965,-70.0,2.500000000000000));
#101=VERTEX_POINT('',#100);
#102=CARTESIAN_POINT('',(-4.999999999999965,-70.0,2.500000000000000));
#103=DIRECTION('',(0.0,0.0,-1.0));
#104=VECTOR('',#103,2.500000000000000);
#105=LINE('',#102,#104);
#106=EDGE_CURVE('',#101,#93,#105,.T.);
#107=ORIENTED_EDGE('',*,*,#106,.F.);
#108=CARTESIAN_POINT('',(-4.999999999999965,-70.0,2.500000000000000));
#109=DIRECTION('',(-1.0,0.0,0.0));
#110=VECTOR('',#109,100.0);
#111=LINE('',#108,#110);
#112=EDGE_CURVE('',#101,#50,#111,.T.);
#113=ORIENTED_EDGE('',*,*,#112,.T.);
#114=EDGE_LOOP('',(#91,#99,#107,#113));
#115=FACE_OUTER_BOUND('',#114,.T.);
#116=ADVANCED_FACE('',(#115),#90,.T.);
#117=CARTESIAN_POINT('',(-55.0,-35.000000000000007,0.0));
#118=DIRECTION('',(0.0,0.0,1.0));
#119=DIRECTION('',(1.0,0.0,0.0));
#120=AXIS2_PLACEMENT_3D('',#117,#118,#119);
#121=PLANE('',#120);
#122=ORIENTED_EDGE('',*,*,#75,.F.);
#123=CARTESIAN_POINT('',(-110.0,-5.000000000000020,0.0));
#124=VERTEX_POINT('',#123);
#125=CARTESIAN_POINT('',(-110.0,-5.000000000000020,0.0));
#126=DIRECTION('',(0.0,-1.0,0.0));
#127=VECTOR('',#126,59.999999999999993);
#128=LINE('',#125,#127);
#129=EDGE_CURVE('',#124,#61,#128,.T.);
#130=ORIENTED_EDGE('',*,*,#129,.F.);
#131=CARTESIAN_POINT('',(-105.0,-1.271710E-014,0.0));
#132=VERTEX_POINT('',#131);
#133=CARTESIAN_POINT('',(-105.0,-5.000000000000018,0.0));
#134=DIRECTION('',(0.0,0.0,1.000000000000000));
#135=DIRECTION('',(-0.707106781186547,0.707106781186548,0.0));
#136=AXIS2_PLACEMENT_3D('',#133,#134,#135);
#137=CIRCLE('',#136,5.0);
#138=EDGE_CURVE('',#132,#124,#137,.T.);
#139=ORIENTED_EDGE('',*,*,#138,.F.);
#140=CARTESIAN_POINT('',(-4.999999999999999,-6.055762E-016,0.0));
#141=VERTEX_POINT('',#140);
#142=CARTESIAN_POINT('',(-4.999999999999999,-6.055762E-016,0.0));
#143=DIRECTION('',(-1.0,0.0,0.0));
#144=VECTOR('',#143,100.0);
#145=LINE('',#142,#144);
#146=EDGE_CURVE('',#141,#132,#145,.T.);
#147=ORIENTED_EDGE('',*,*,#146,.F.);
#148=CARTESIAN_POINT('',(2.143061E-015,-5.0,0.0));
#149=VERTEX_POINT('',#148);
#150=CARTESIAN_POINT('',(-4.999999999999999,-5.0,0.0));
#151=DIRECTION('',(0.0,0.0,1.0));
#152=DIRECTION('',(0.707106781186547,0.707106781186548,0.0));
#153=AXIS2_PLACEMENT_3D('',#150,#151,#152);
#154=CIRCLE('',#153,5.0);
#155=EDGE_CURVE('',#149,#141,#154,.T.);
#156=ORIENTED_EDGE('',*,*,#155,.F.);
#157=CARTESIAN_POINT('',(2.785979E-014,-65.0,0.0));
#158=VERTEX_POINT('',#157);
#159=CARTESIAN_POINT('',(2.785979E-014,-65.0,0.0));
#160=DIRECTION('',(0.0,1.0,0.0));
#161=VECTOR('',#160,60.0);
#162=LINE('',#159,#161);
#163=EDGE_CURVE('',#158,#149,#162,.T.);
#164=ORIENTED_EDGE('',*,*,#163,.F.);
#165=CARTESIAN_POINT('',(-4.999999999999973,-65.0,0.0));
#166=DIRECTION('',(0.0,0.0,1.000000000000000));
#167=DIRECTION('',(0.707106781186547,-0.707106781186547,0.0));
#168=AXIS2_PLACEMENT_3D('',#165,#166,#167);
#169=CIRCLE('',#168,4.999999999999999);
#170=EDGE_CURVE('',#93,#158,#169,.T.);
#171=ORIENTED_EDGE('',*,*,#170,.F.);
#172=ORIENTED_EDGE('',*,*,#98,.F.);
#173=EDGE_LOOP('',(#122,#130,#139,#147,#156,#164,#171,#172));
#174=FACE_OUTER_BOUND('',#173,.T.);
#175=CARTESIAN_POINT('',(-100.499999999999990,-16.000000000000039,0.0));
#176=VERTEX_POINT('',#175);
#177=CARTESIAN_POINT('',(-9.499999999999996,-15.999999999999957,0.0));
#178=VERTEX_POINT('',#177);
#179=CARTESIAN_POINT('',(-100.499999999999990,-16.000000000000039,0.0));
#180=DIRECTION('',(1.0,0.0,0.0));
#181=VECTOR('',#180,90.999999999999986);
#182=LINE('',#179,#181);
#183=EDGE_CURVE('',#176,#178,#182,.T.);
#184=ORIENTED_EDGE('',*,*,#183,.T.);
#185=CARTESIAN_POINT('',(-9.499999999999996,-8.999999999999954,0.0));
#186=VERTEX_POINT('',#185);
#187=CARTESIAN_POINT('',(-9.499999999999993,-12.499999999999956,0.0));
#188=DIRECTION('',(0.0,0.0,1.0));
#189=DIRECTION('',(-1.0,0.0,0.0));
#190=AXIS2_PLACEMENT_3D('',#187,#188,#189);
#191=CIRCLE('',#190,3.500000000000000);
#192=EDGE_CURVE('',#178,#186,#191,.T.);
#193=ORIENTED_EDGE('',*,*,#192,.T.);
#194=CARTESIAN_POINT('',(-100.499999999999990,-8.999999999999966,0.0));
#195=VERTEX_POINT('',#194);
#196=CARTESIAN_POINT('',(-9.499999999999996,-8.999999999999954,0.0));
#197=DIRECTION('',(-1.0,0.0,0.0));
#198=VECTOR('',#197,90.999999999999986);
#199=LINE('',#196,#198);
#200=EDGE_CURVE('',#186,#195,#199,.T.);
#201=ORIENTED_EDGE('',*,*,#200,.T.);
#202=CARTESIAN_POINT('',(-100.499999999999990,-12.500000000000002,0.0));
#203=DIRECTION('',(0.0,0.0,1.0));
#204=DIRECTION('',(-1.0,0.0,0.0));
#205=AXIS2_PLACEMENT_3D('',#202,#203,#204);
#206=CIRCLE('',#205,3.500000000000036);
#207=EDGE_CURVE('',#195,#176,#206,.T.);
#208=ORIENTED_EDGE('',*,*,#207,.T.);
#209=EDGE_LOOP('',(#184,#193,#201,#208));
#210=FACE_BOUND('',#209,.T.);
#211=CARTESIAN_POINT('',(-100.499999999999970,-61.000000000000021,0.0));
#212=VERTEX_POINT('',#211);
#213=CARTESIAN_POINT('',(-9.499999999999972,-60.999999999999950,0.0));
#214=VERTEX_POINT('',#213);
#215=CARTESIAN_POINT('',(-100.499999999999970,-61.000000000000021,0.0));
#216=DIRECTION('',(1.0,0.0,0.0));
#217=VECTOR('',#216,91.0);
#218=LINE('',#215,#217);
#219=EDGE_CURVE('',#212,#214,#218,.T.);
#220=ORIENTED_EDGE('',*,*,#219,.T.);
#221=CARTESIAN_POINT('',(-9.499999999999972,-53.999999999999957,0.0));
#222=VERTEX_POINT('',#221);
#223=CARTESIAN_POINT('',(-9.499999999999975,-57.499999999999957,0.0));
#224=DIRECTION('',(0.0,0.0,1.0));
#225=DIRECTION('',(-1.0,0.0,0.0));
#226=AXIS2_PLACEMENT_3D('',#223,#224,#225);
#227=CIRCLE('',#226,3.500000000000000);
#228=EDGE_CURVE('',#214,#222,#227,.T.);
#229=ORIENTED_EDGE('',*,*,#228,.T.);
#230=CARTESIAN_POINT('',(-100.499999999999970,-53.999999999999979,0.0));
#231=VERTEX_POINT('',#230);
#232=CARTESIAN_POINT('',(-9.499999999999972,-53.999999999999957,0.0));
#233=DIRECTION('',(-1.0,0.0,0.0));
#234=VECTOR('',#233,91.0);
#235=LINE('',#232,#234);
#236=EDGE_CURVE('',#222,#231,#235,.T.);
#237=ORIENTED_EDGE('',*,*,#236,.T.);
#238=CARTESIAN_POINT('',(-100.499999999999970,-57.500000000000000,0.0));
#239=DIRECTION('',(0.0,0.0,1.0));
#240=DIRECTION('',(-1.0,0.0,0.0));
#241=AXIS2_PLACEMENT_3D('',#238,#239,#240);
#242=CIRCLE('',#241,3.500000000000023);
#243=EDGE_CURVE('',#231,#212,#242,.T.);
#244=ORIENTED_EDGE('',*,*,#243,.T.);
#245=EDGE_LOOP('',(#220,#229,#237,#244));
#246=FACE_BOUND('',#245,.T.);
#247=ADVANCED_FACE('',(#174,#210,#246),#121,.F.);
#248=CARTESIAN_POINT('',(-105.0,-5.000000000000018,0.0));
#249=DIRECTION('',(0.0,0.0,1.0));
#250=DIRECTION('',(-0.707106781186547,0.707106781186548,0.0));
#251=AXIS2_PLACEMENT_3D('',#248,#249,#250);
#252=CYLINDRICAL_SURFACE('',#251,4.999999999999999);
#253=CARTESIAN_POINT('',(-110.0,-5.000000000000020,2.500000000000000));
#254=VERTEX_POINT('',#253);
#255=CARTESIAN_POINT('',(-105.0,-1.271710E-014,2.500000000000000));
#256=VERTEX_POINT('',#255);
#257=CARTESIAN_POINT('',(-105.0,-5.000000000000018,2.500000000000000));
#258=DIRECTION('',(0.0,0.0,-1.000000000000000));
#259=DIRECTION('',(-0.707106781186547,0.707106781186548,0.0));
#260=AXIS2_PLACEMENT_3D('',#257,#258,#259);
#261=CIRCLE('',#260,5.0);
#262=EDGE_CURVE('',#254,#256,#261,.T.);
#263=ORIENTED_EDGE('',*,*,#262,.T.);
#264=CARTESIAN_POINT('',(-105.0,-1.271710E-014,2.500000000000000));
#265=DIRECTION('',(0.0,0.0,-1.0));
#266=VECTOR('',#265,2.500000000000000);
#267=LINE('',#264,#266);
#268=EDGE_CURVE('',#256,#132,#267,.T.);
#269=ORIENTED_EDGE('',*,*,#268,.T.);
#270=ORIENTED_EDGE('',*,*,#138,.T.);
#271=CARTESIAN_POINT('',(-110.0,-5.000000000000020,0.0));
#272=DIRECTION('',(0.0,0.0,1.0));
#273=VECTOR('',#272,2.500000000000000);
#274=LINE('',#271,#273);
#275=EDGE_CURVE('',#124,#254,#274,.T.);
#276=ORIENTED_EDGE('',*,*,#275,.T.);
#277=EDGE_LOOP('',(#263,#269,#270,#276));
#278=FACE_OUTER_BOUND('',#277,.T.);
#279=ADVANCED_FACE('',(#278),#252,.T.);
#280=CARTESIAN_POINT('',(-110.0,-1.332268E-014,0.0));
#281=DIRECTION('',(0.0,1.0,0.0));
#282=DIRECTION('',(0.0,0.0,1.0));
#283=AXIS2_PLACEMENT_3D('',#280,#281,#282);
#284=PLANE('',#283);
#285=ORIENTED_EDGE('',*,*,#268,.F.);
#286=CARTESIAN_POINT('',(-4.999999999999999,-6.055762E-016,2.500000000000000));
#287=VERTEX_POINT('',#286);
#288=CARTESIAN_POINT('',(-105.0,-1.271710E-014,2.500000000000000));
#289=DIRECTION('',(1.0,0.0,0.0));
#290=VECTOR('',#289,100.0);
#291=LINE('',#288,#290);
#292=EDGE_CURVE('',#256,#287,#291,.T.);
#293=ORIENTED_EDGE('',*,*,#292,.T.);
#294=CARTESIAN_POINT('',(-4.999999999999999,-6.055762E-016,0.0));
#295=DIRECTION('',(0.0,0.0,1.0));
#296=VECTOR('',#295,2.500000000000000);
#297=LINE('',#294,#296);
#298=EDGE_CURVE('',#141,#287,#297,.T.);
#299=ORIENTED_EDGE('',*,*,#298,.F.);
#300=ORIENTED_EDGE('',*,*,#146,.T.);
#301=EDGE_LOOP('',(#285,#293,#299,#300));
#302=FACE_OUTER_BOUND('',#301,.T.);
#303=ADVANCED_FACE('',(#302),#284,.T.);
#304=CARTESIAN_POINT('',(-4.999999999999999,-5.0,0.0));
#305=DIRECTION('',(0.0,0.0,1.0));
#306=DIRECTION('',(0.707106781186547,0.707106781186548,0.0));
#307=AXIS2_PLACEMENT_3D('',#304,#305,#306);
#308=CYLINDRICAL_SURFACE('',#307,5.0);
#309=CARTESIAN_POINT('',(2.143061E-015,-5.0,2.500000000000000));
#310=VERTEX_POINT('',#309);
#311=CARTESIAN_POINT('',(-4.999999999999999,-5.0,2.500000000000000));
#312=DIRECTION('',(0.0,0.0,-1.0));
#313=DIRECTION('',(0.707106781186547,0.707106781186548,0.0));
#314=AXIS2_PLACEMENT_3D('',#311,#312,#313);
#315=CIRCLE('',#314,5.0);
#316=EDGE_CURVE('',#287,#310,#315,.T.);
#317=ORIENTED_EDGE('',*,*,#316,.T.);
#318=CARTESIAN_POINT('',(2.143061E-015,-5.0,2.500000000000000));
#319=DIRECTION('',(0.0,0.0,-1.0));
#320=VECTOR('',#319,2.500000000000000);
#321=LINE('',#318,#320);
#322=EDGE_CURVE('',#310,#149,#321,.T.);
#323=ORIENTED_EDGE('',*,*,#322,.T.);
#324=ORIENTED_EDGE('',*,*,#155,.T.);
#325=ORIENTED_EDGE('',*,*,#298,.T.);
#326=EDGE_LOOP('',(#317,#323,#324,#325));
#327=FACE_OUTER_BOUND('',#326,.T.);
#328=ADVANCED_FACE('',(#327),#308,.T.);
#329=CARTESIAN_POINT('',(-4.999999999999973,-65.0,0.0));
#330=DIRECTION('',(0.0,0.0,1.0));
#331=DIRECTION('',(0.707106781186547,-0.707106781186547,0.0));
#332=AXIS2_PLACEMENT_3D('',#329,#330,#331);
#333=CYLINDRICAL_SURFACE('',#332,5.0);
#334=CARTESIAN_POINT('',(2.785979E-014,-65.0,2.500000000000000));
#335=VERTEX_POINT('',#334);
#336=CARTESIAN_POINT('',(-4.999999999999973,-65.0,2.500000000000000));
#337=DIRECTION('',(0.0,0.0,-1.000000000000000));
#338=DIRECTION('',(0.707106781186547,-0.707106781186547,0.0));
#339=AXIS2_PLACEMENT_3D('',#336,#337,#338);
#340=CIRCLE('',#339,4.999999999999999);
#341=EDGE_CURVE('',#335,#101,#340,.T.);
#342=ORIENTED_EDGE('',*,*,#341,.T.);
#343=ORIENTED_EDGE('',*,*,#106,.T.);
#344=ORIENTED_EDGE('',*,*,#170,.T.);
#345=CARTESIAN_POINT('',(2.785979E-014,-65.0,0.0));
#346=DIRECTION('',(0.0,0.0,1.0));
#347=VECTOR('',#346,2.500000000000000);
#348=LINE('',#345,#347);
#349=EDGE_CURVE('',#158,#335,#348,.T.);
#350=ORIENTED_EDGE('',*,*,#349,.T.);
#351=EDGE_LOOP('',(#342,#343,#344,#350));
#352=FACE_OUTER_BOUND('',#351,.T.);
#353=ADVANCED_FACE('',(#352),#333,.T.);
#354=CARTESIAN_POINT('',(-9.499999999999996,-8.999999999999954,2.500000000000000));
#355=DIRECTION('',(0.0,1.0,0.0));
#356=DIRECTION('',(0.0,0.0,1.0));
#357=AXIS2_PLACEMENT_3D('',#354,#355,#356);
#358=PLANE('',#357);
#359=ORIENTED_EDGE('',*,*,#200,.F.);
#360=CARTESIAN_POINT('',(-9.499999999999996,-8.999999999999954,2.500000000000000));
#361=VERTEX_POINT('',#360);
#362=CARTESIAN_POINT('',(-9.499999999999996,-8.999999999999954,0.0));
#363=DIRECTION('',(0.0,0.0,1.0));
#364=VECTOR('',#363,2.500000000000000);
#365=LINE('',#362,#364);
#366=EDGE_CURVE('',#186,#361,#365,.T.);
#367=ORIENTED_EDGE('',*,*,#366,.T.);
#368=CARTESIAN_POINT('',(-100.499999999999990,-8.999999999999966,2.500000000000000));
#369=VERTEX_POINT('',#368);
#370=CARTESIAN_POINT('',(-100.499999999999990,-8.999999999999966,2.500000000000000));
#371=DIRECTION('',(1.0,0.0,0.0));
#372=VECTOR('',#371,90.999999999999986);
#373=LINE('',#370,#372);
#374=EDGE_CURVE('',#369,#361,#373,.T.);
#375=ORIENTED_EDGE('',*,*,#374,.F.);
#376=CARTESIAN_POINT('',(-100.499999999999990,-8.999999999999966,2.500000000000000));
#377=DIRECTION('',(0.0,0.0,-1.0));
#378=VECTOR('',#377,2.500000000000000);
#379=LINE('',#376,#378);
#380=EDGE_CURVE('',#369,#195,#379,.T.);
#381=ORIENTED_EDGE('',*,*,#380,.T.);
#382=EDGE_LOOP('',(#359,#367,#375,#381));
#383=FACE_OUTER_BOUND('',#382,.T.);
#384=ADVANCED_FACE('',(#383),#358,.F.);
#385=CARTESIAN_POINT('',(-100.499999999999990,-12.500000000000002,2.500000000000000));
#386=DIRECTION('',(0.0,0.0,-1.0));
#387=DIRECTION('',(-1.0,0.0,0.0));
#388=AXIS2_PLACEMENT_3D('',#385,#386,#387);
#389=CYLINDRICAL_SURFACE('',#388,3.500000000000036);
#390=ORIENTED_EDGE('',*,*,#207,.F.);
#391=ORIENTED_EDGE('',*,*,#380,.F.);
#392=CARTESIAN_POINT('',(-100.499999999999990,-16.000000000000036,2.500000000000000));
#393=VERTEX_POINT('',#392);
#394=CARTESIAN_POINT('',(-100.499999999999990,-12.500000000000002,2.500000000000000));
#395=DIRECTION('',(0.0,0.0,-1.0));
#396=DIRECTION('',(-1.0,0.0,0.0));
#397=AXIS2_PLACEMENT_3D('',#394,#395,#396);
#398=CIRCLE('',#397,3.500000000000036);
#399=EDGE_CURVE('',#393,#369,#398,.T.);
#400=ORIENTED_EDGE('',*,*,#399,.F.);
#401=CARTESIAN_POINT('',(-100.499999999999990,-16.000000000000039,0.0));
#402=DIRECTION('',(0.0,0.0,1.0));
#403=VECTOR('',#402,2.500000000000000);
#404=LINE('',#401,#403);
#405=EDGE_CURVE('',#176,#393,#404,.T.);
#406=ORIENTED_EDGE('',*,*,#405,.F.);
#407=EDGE_LOOP('',(#390,#391,#400,#406));
#408=FACE_OUTER_BOUND('',#407,.T.);
#409=ADVANCED_FACE('',(#408),#389,.F.);
#410=CARTESIAN_POINT('',(-100.499999999999990,-16.000000000000036,2.500000000000000));
#411=DIRECTION('',(0.0,-1.0,0.0));
#412=DIRECTION('',(0.0,0.0,-1.0));
#413=AXIS2_PLACEMENT_3D('',#410,#411,#412);
#414=PLANE('',#413);
#415=ORIENTED_EDGE('',*,*,#183,.F.);
#416=ORIENTED_EDGE('',*,*,#405,.T.);
#417=CARTESIAN_POINT('',(-9.499999999999996,-16.000000000000046,2.500000000000000));
#418=VERTEX_POINT('',#417);
#419=CARTESIAN_POINT('',(-9.499999999999996,-16.000000000000046,2.500000000000000));
#420=DIRECTION('',(-1.0,0.0,0.0));
#421=VECTOR('',#420,90.999999999999986);
#422=LINE('',#419,#421);
#423=EDGE_CURVE('',#418,#393,#422,.T.);
#424=ORIENTED_EDGE('',*,*,#423,.F.);
#425=CARTESIAN_POINT('',(-9.499999999999996,-16.000000000000046,2.500000000000000));
#426=DIRECTION('',(0.0,0.0,-1.0));
#427=VECTOR('',#426,2.500000000000000);
#428=LINE('',#425,#427);
#429=EDGE_CURVE('',#418,#178,#428,.T.);
#430=ORIENTED_EDGE('',*,*,#429,.T.);
#431=EDGE_LOOP('',(#415,#416,#424,#430));
#432=FACE_OUTER_BOUND('',#431,.T.);
#433=ADVANCED_FACE('',(#432),#414,.F.);
#434=CARTESIAN_POINT('',(-9.499999999999993,-12.499999999999956,2.500000000000000));
#435=DIRECTION('',(0.0,0.0,-1.0));
#436=DIRECTION('',(-1.0,0.0,0.0));
#437=AXIS2_PLACEMENT_3D('',#434,#435,#436);
#438=CYLINDRICAL_SURFACE('',#437,3.500000000000000);
#439=ORIENTED_EDGE('',*,*,#192,.F.);
#440=ORIENTED_EDGE('',*,*,#429,.F.);
#441=CARTESIAN_POINT('',(-9.499999999999993,-12.499999999999956,2.500000000000000));
#442=DIRECTION('',(0.0,0.0,-1.0));
#443=DIRECTION('',(-1.0,0.0,0.0));
#444=AXIS2_PLACEMENT_3D('',#441,#442,#443);
#445=CIRCLE('',#444,3.500000000000000);
#446=EDGE_CURVE('',#361,#418,#445,.T.);
#447=ORIENTED_EDGE('',*,*,#446,.F.);
#448=ORIENTED_EDGE('',*,*,#366,.F.);
#449=EDGE_LOOP('',(#439,#440,#447,#448));
#450=FACE_OUTER_BOUND('',#449,.T.);
#451=ADVANCED_FACE('',(#450),#438,.F.);
#452=CARTESIAN_POINT('',(-9.499999999999972,-53.999999999999957,2.500000000000000));
#453=DIRECTION('',(0.0,1.0,0.0));
#454=DIRECTION('',(0.0,0.0,1.0));
#455=AXIS2_PLACEMENT_3D('',#452,#453,#454);
#456=PLANE('',#455);
#457=ORIENTED_EDGE('',*,*,#236,.F.);
#458=CARTESIAN_POINT('',(-9.499999999999972,-53.999999999999957,2.500000000000000));
#459=VERTEX_POINT('',#458);
#460=CARTESIAN_POINT('',(-9.499999999999972,-53.999999999999957,0.0));
#461=DIRECTION('',(0.0,0.0,1.0));
#462=VECTOR('',#461,2.500000000000000);
#463=LINE('',#460,#462);
#464=EDGE_CURVE('',#222,#459,#463,.T.);
#465=ORIENTED_EDGE('',*,*,#464,.T.);
#466=CARTESIAN_POINT('',(-100.499999999999970,-53.999999999999979,2.500000000000000));
#467=VERTEX_POINT('',#466);
#468=CARTESIAN_POINT('',(-100.499999999999970,-53.999999999999979,2.500000000000000));
#469=DIRECTION('',(1.0,0.0,0.0));
#470=VECTOR('',#469,91.0);
#471=LINE('',#468,#470);
#472=EDGE_CURVE('',#467,#459,#471,.T.);
#473=ORIENTED_EDGE('',*,*,#472,.F.);
#474=CARTESIAN_POINT('',(-100.499999999999970,-53.999999999999979,2.500000000000000));
#475=DIRECTION('',(0.0,0.0,-1.0));
#476=VECTOR('',#475,2.500000000000000);
#477=LINE('',#474,#476);
#478=EDGE_CURVE('',#467,#231,#477,.T.);
#479=ORIENTED_EDGE('',*,*,#478,.T.);
#480=EDGE_LOOP('',(#457,#465,#473,#479));
#481=FACE_OUTER_BOUND('',#480,.T.);
#482=ADVANCED_FACE('',(#481),#456,.F.);
#483=CARTESIAN_POINT('',(-100.499999999999970,-57.500000000000000,2.500000000000000));
#484=DIRECTION('',(0.0,0.0,-1.0));
#485=DIRECTION('',(-1.0,0.0,0.0));
#486=AXIS2_PLACEMENT_3D('',#483,#484,#485);
#487=CYLINDRICAL_SURFACE('',#486,3.500000000000023);
#488=ORIENTED_EDGE('',*,*,#243,.F.);
#489=ORIENTED_EDGE('',*,*,#478,.F.);
#490=CARTESIAN_POINT('',(-100.499999999999970,-61.000000000000021,2.500000000000000));
#491=VERTEX_POINT('',#490);
#492=CARTESIAN_POINT('',(-100.499999999999970,-57.500000000000000,2.500000000000000));
#493=DIRECTION('',(0.0,0.0,-1.0));
#494=DIRECTION('',(-1.0,0.0,0.0));
#495=AXIS2_PLACEMENT_3D('',#492,#493,#494);
#496=CIRCLE('',#495,3.500000000000023);
#497=EDGE_CURVE('',#491,#467,#496,.T.);
#498=ORIENTED_EDGE('',*,*,#497,.F.);
#499=CARTESIAN_POINT('',(-100.499999999999970,-61.000000000000021,0.0));
#500=DIRECTION('',(0.0,0.0,1.0));
#501=VECTOR('',#500,2.500000000000000);
#502=LINE('',#499,#501);
#503=EDGE_CURVE('',#212,#491,#502,.T.);
#504=ORIENTED_EDGE('',*,*,#503,.F.);
#505=EDGE_LOOP('',(#488,#489,#498,#504));
#506=FACE_OUTER_BOUND('',#505,.T.);
#507=ADVANCED_FACE('',(#506),#487,.F.);
#508=CARTESIAN_POINT('',(-100.499999999999970,-61.000000000000021,2.500000000000000));
#509=DIRECTION('',(0.0,-1.0,0.0));
#510=DIRECTION('',(0.0,0.0,-1.0));
#511=AXIS2_PLACEMENT_3D('',#508,#509,#510);
#512=PLANE('',#511);
#513=ORIENTED_EDGE('',*,*,#219,.F.);
#514=ORIENTED_EDGE('',*,*,#503,.T.);
#515=CARTESIAN_POINT('',(-9.499999999999972,-60.999999999999950,2.500000000000000));
#516=VERTEX_POINT('',#515);
#517=CARTESIAN_POINT('',(-9.499999999999972,-60.999999999999950,2.500000000000000));
#518=DIRECTION('',(-1.0,0.0,0.0));
#519=VECTOR('',#518,91.0);
#520=LINE('',#517,#519);
#521=EDGE_CURVE('',#516,#491,#520,.T.);
#522=ORIENTED_EDGE('',*,*,#521,.F.);
#523=CARTESIAN_POINT('',(-9.499999999999972,-60.999999999999950,2.500000000000000));
#524=DIRECTION('',(0.0,0.0,-1.0));
#525=VECTOR('',#524,2.500000000000000);
#526=LINE('',#523,#525);
#527=EDGE_CURVE('',#516,#214,#526,.T.);
#528=ORIENTED_EDGE('',*,*,#527,.T.);
#529=EDGE_LOOP('',(#513,#514,#522,#528));
#530=FACE_OUTER_BOUND('',#529,.T.);
#531=ADVANCED_FACE('',(#530),#512,.F.);
#532=CARTESIAN_POINT('',(-9.499999999999975,-57.499999999999957,2.500000000000000));
#533=DIRECTION('',(0.0,0.0,-1.0));
#534=DIRECTION('',(-1.0,0.0,0.0));
#535=AXIS2_PLACEMENT_3D('',#532,#533,#534);
#536=CYLINDRICAL_SURFACE('',#535,3.500000000000000);
#537=ORIENTED_EDGE('',*,*,#228,.F.);
#538=ORIENTED_EDGE('',*,*,#527,.F.);
#539=CARTESIAN_POINT('',(-9.499999999999975,-57.499999999999957,2.500000000000000));
#540=DIRECTION('',(0.0,0.0,-1.0));
#541=DIRECTION('',(-1.0,0.0,0.0));
#542=AXIS2_PLACEMENT_3D('',#539,#540,#541);
#543=CIRCLE('',#542,3.500000000000000);
#544=EDGE_CURVE('',#459,#516,#543,.T.);
#545=ORIENTED_EDGE('',*,*,#544,.F.);
#546=ORIENTED_EDGE('',*,*,#464,.F.);
#547=EDGE_LOOP('',(#537,#538,#545,#546));
#548=FACE_OUTER_BOUND('',#547,.T.);
#549=ADVANCED_FACE('',(#548),#536,.F.);
#550=CARTESIAN_POINT('',(0.0,0.0,0.0));
#551=DIRECTION('',(1.0,0.0,0.0));
#552=DIRECTION('',(0.0,0.0,-1.0));
#553=AXIS2_PLACEMENT_3D('',#550,#551,#552);
#554=PLANE('',#553);
#555=ORIENTED_EDGE('',*,*,#322,.F.);
#556=CARTESIAN_POINT('',(2.143061E-015,-5.0,2.500000000000000));
#557=DIRECTION('',(0.0,-1.0,0.0));
#558=VECTOR('',#557,60.0);
#559=LINE('',#556,#558);
#560=EDGE_CURVE('',#310,#335,#559,.T.);
#561=ORIENTED_EDGE('',*,*,#560,.T.);
#562=ORIENTED_EDGE('',*,*,#349,.F.);
#563=ORIENTED_EDGE('',*,*,#163,.T.);
#564=EDGE_LOOP('',(#555,#561,#562,#563));
#565=FACE_OUTER_BOUND('',#564,.T.);
#566=ADVANCED_FACE('',(#565),#554,.T.);
#567=CARTESIAN_POINT('',(-109.999999999999970,-70.000000000000014,0.0));
#568=DIRECTION('',(-1.0,0.0,0.0));
#569=DIRECTION('',(0.0,0.0,1.0));
#570=AXIS2_PLACEMENT_3D('',#567,#568,#569);
#571=PLANE('',#570);
#572=ORIENTED_EDGE('',*,*,#66,.F.);
#573=CARTESIAN_POINT('',(-109.999999999999970,-65.000000000000014,2.500000000000000));
#574=DIRECTION('',(0.0,1.0,0.0));
#575=VECTOR('',#574,59.999999999999993);
#576=LINE('',#573,#575);
#577=EDGE_CURVE('',#52,#254,#576,.T.);
#578=ORIENTED_EDGE('',*,*,#577,.T.);
#579=ORIENTED_EDGE('',*,*,#275,.F.);
#580=ORIENTED_EDGE('',*,*,#129,.T.);
#581=EDGE_LOOP('',(#572,#578,#579,#580));
#582=FACE_OUTER_BOUND('',#581,.T.);
#583=ADVANCED_FACE('',(#582),#571,.T.);
#584=CARTESIAN_POINT('',(-54.999999999999993,-35.000000000000007,2.500000000000000));
#585=DIRECTION('',(0.0,0.0,1.0));
#586=DIRECTION('',(1.0,0.0,0.0));
#587=AXIS2_PLACEMENT_3D('',#584,#585,#586);
#588=PLANE('',#587);
#589=ORIENTED_EDGE('',*,*,#58,.F.);
#590=ORIENTED_EDGE('',*,*,#112,.F.);
#591=ORIENTED_EDGE('',*,*,#341,.F.);
#592=ORIENTED_EDGE('',*,*,#560,.F.);
#593=ORIENTED_EDGE('',*,*,#316,.F.);
#594=ORIENTED_EDGE('',*,*,#292,.F.);
#595=ORIENTED_EDGE('',*,*,#262,.F.);
#596=ORIENTED_EDGE('',*,*,#577,.F.);
#597=EDGE_LOOP('',(#589,#590,#591,#592,#593,#594,#595,#596));
#598=FACE_OUTER_BOUND('',#597,.T.);
#599=ORIENTED_EDGE('',*,*,#423,.T.);
#600=ORIENTED_EDGE('',*,*,#399,.T.);
#601=ORIENTED_EDGE('',*,*,#374,.T.);
#602=ORIENTED_EDGE('',*,*,#446,.T.);
#603=EDGE_LOOP('',(#599,#600,#601,#602));
#604=FACE_BOUND('',#603,.T.);
#605=ORIENTED_EDGE('',*,*,#521,.T.);
#606=ORIENTED_EDGE('',*,*,#497,.T.);
#607=ORIENTED_EDGE('',*,*,#472,.T.);
#608=ORIENTED_EDGE('',*,*,#544,.T.);
#609=EDGE_LOOP('',(#605,#606,#607,#608));
#610=FACE_BOUND('',#609,.T.);
#611=ADVANCED_FACE('',(#598,#604,#610),#588,.T.);
#612=CLOSED_SHELL('',(#85,#116,#247,#279,#303,#328,#353,#384,#409,#433,#451,#482,#507,#531,#549,#566,#583,#611));
#613=MANIFOLD_SOLID_BREP('',#612);
#614=COLOUR_RGB('Standard',0.752941012382507,0.752941012382507,0.752941012382507);
#615=FILL_AREA_STYLE_COLOUR('Standard',#614);
#616=FILL_AREA_STYLE('Standard',(#615));
#617=SURFACE_STYLE_FILL_AREA(#616);
#618=SURFACE_SIDE_STYLE('Standard',(#617));
#619=SURFACE_STYLE_USAGE(.BOTH.,#618);
#620=PRESENTATION_STYLE_ASSIGNMENT((#619));
#621=STYLED_ITEM('',(#620),#613);
#622=MECHANICAL_DESIGN_GEOMETRIC_PRESENTATION_REPRESENTATION('',(#621),#36);
#623=ADVANCED_BREP_SHAPE_REPRESENTATION('ABSR',(#613),#36);
#624=SHAPE_REPRESENTATION_RELATIONSHIP('SRR','None',#623,#41);
ENDSEC;
END-ISO-10303-21;
